Cifra Club

Ser Mudado

Alessandro Vilas Boas

Tablatura: Principal (guitarra)
Tom: G
Am
  Hey Jesus
C               G
  Será que é pedir demais
Am
  Nova fome
C              G
  Uma nova paixão por ti

                  Am
Não é que eu não seja grato
 C                 G
Por tudo que tens feito em mim
             Am           C
Mas meu coração tem chorado
     G
Por ti
           Am           C
O meu coração tem clamado
     G
Por ti

E|------------------------------------|
B|------------------------------------|
G|--7/5--12--12/14/7--7/9--12/9--9/7--|
D|------------------------------------|
A|------------------------------------|
E|------------------------------------|

Am            C
  Ser tocado por tua glória
G
É o meu desejo
É o que eu mais quero Deus
Am            C
  Ser mudado por tua face
G
É o meu anseio
É o meu maior prazer

( Am  C  G )

                  Am       C
Não é que eu não seja grato
                   G
Por tudo que tens feito em mim
             Am             C
Mas meu coração tem chorado
     G
Por ti
           Am            C
O meu coração tem clamado
     G
Por ti

               Am
Eu não trouxe nada pra mesa
               C
Eu não trouxe nada pra mesa
            G
Apenas uma fome e uma sede
Uma fome e uma sede

               Am
Eu não trouxe nada pra mesa
               C
Eu não trouxe nada pra mesa
            G
Apenas uma fome e uma sede
Uma fome e uma sede

               Am
Eu não trouxe nada pra mesa
               C
Eu não trouxe nada pra mesa
            G
Apenas uma fome e uma sede
Uma fome e uma sede

               Am
Eu não trouxe nada pra mesa
               C
Eu não trouxe nada pra mesa
            G
Apenas uma fome e uma sede


Eu nunca olhei pra alguém
        Am
Como eu olho pra ti
          C           G
Como eu quero a ti Jesus
Eu nunca olhei pra alguém
        Am
Como eu olho pra ti
          C                G
Como eu quero meu amado Jesus

        Am
Casa comigo
        C        G
Casa comigo é Jesus
        Am
Casa comigo
        C      G
Casa comigo oh
        Am
Casa comigo

[Solo] Am  C  G
       Am  C  G

E|---------------------------------------|
B|--------------8-----------8------------|
G|------5-7-7b9----7b9--7b9----7b9-------|
D|--5-7----------------------------------|
A|---------------------------------------|
E|---------------------------------------|

E|---------------------------------------|
B|---------------------------------------|
G|--5-4~--5p4-5p4------------------------|
D|----------------5--5/7--7-7-7-7--------|
A|---------------------------------------|
E|---------------------------------------|

E|---------------------------------------|
B|--------------8-----------8------------|
G|------5-7-7b9----7b9--7b9----7b9-------|
D|--5-7----------------------------------|
A|---------------------------------------|
E|---------------------------------------|

E|---------------------------------------|
B|---------------------------------------|
G|--5-4~-5p4-5p4-------------------------|
D|---------------------------------------|
A|---------------------------------------|
E|---------------------------------------|

E|-----8-10-8-10/12--10b12-10b12-10b12-8-|
B|8/10-----------------------------------|
G|---------------------------------------|
D|5/7------------------------------------|
A|---------------------------------------|
E|---------------------------------------|

Am            C
  Ser tocado por tua glória
G
É o meu desejo
É o que eu mais quero Deus
Am            C
  Ser mudado por tua face
G
É o meu anseio
                  Am  C  G
É o meu maior prazer
reproducciones 278
Acordes para:

    0 comentarios

    mostrar más comentarios

    ¿Conseguiste tocar?

    66 tocaron 19 aún no

    ¡Graba un vídeo tocando Ser Mudado y envianoslo!

    00:00 / 00:00
    outros vídeos desta música
    repetir qualidade Automático
    Outros vídeos desta música
    00:00 / 00:00
    Automático
    OK