Cifra Club

Wacht Out

Alex Gaudino

Cifrado: Principal (guitarra y guitarra eléctrica)
tono: A
      D     A   D     A   F  A  C      E  A
e|------------------------------------------------------------------------|
B|------------------------------------------------------------------------|
G|------------------------------------------------------------------------|
D|----------7---------7------7--10--------7-------------------------------|
A|----5---------5---------8------------7----------------------------------|
E|------------------------------------------------------------------------|

      D     A   D     A   
e|------------------------|   
B|------------------------|
G|------------------------| Repete e vai aumentando a velocidade.
D|----------7---------7---|
A|----5---------5---------|
E|------------------------|

    D  A  D  A  D  A D A  
e|------------------------|
B|------------------------|
G|------------------------| Duas vezes.
D|-----7-----7-----7---7--|
A|--5-----5-----5----5----|
E|------------------------|
00:00 / 00:00
Otros videos de esta canción
Repetir
Otros videos de esta canción
Composición de Alex Gaudino
Colaboración y revisión:
  • DJLOKEM
  • Rafael
34 vistas
    • ½ Tono
    • A
    • Bb
    • B
    • C
    • Db
    • D
    • Eb
    • E
    • F
    • F#
    • G
    • Ab
  • Agregar a la lista

    0 comentarios

    Ver todos los comentarios

    ¿Lograste tocar?

    0 Tocaron 0 Aún no

    ¡Graba un video tocando Wacht Out y envíanoslo!

    00:00 / 00:00
    OK