Cifra Club

Black Gives Way To Blue

Alice In Chains

Cifrado: Principal (guitarra y guitarra eléctrica)
Selo Cifra Club: esta cifra foi revisada para atender aos critérios oficiais da nossa Equipe de Qualidade.
tono: Ab (con acordes en la forma de A) Afinación: Eb Ab Db Gb Bb Eb
[Intro] D7M  B9  A  E 
        D7M  B9  A  E

      D7M                        B9
E|--------------------------|--------------------------|
B|--------------------------|--------------------------|
G|-----6-----6--------6-----|-----6-----6--------6-----|
D|-----4-----4--------4-----|-----4-----4--------4-----|
A|--5-----5--------5-----5--|--2-----2--------2-----2--|
E|--------------------------|--------------------------|

  A                          E
E|--------------------------|--------------------------|
B|--------------------------|--------------------------|
G|-----6-----6--------6-----|-----9-----9--------9-----|
D|-----2-----2--------2-----|-----6-----6--------6-----|
A|--0-----0--------0-----0--|--7-----7--------7-----7--|
E|--------------------------|--------------------------|

D7M           B9            A     E
    I don't wanna feel no more
D7M          B9           A       E
    It's easier to keep falling
D7M      B9          A     E
    Imitations are pale
D7M        B9        A
    Emptiness all tomorrows
    C#7              D7M  B9
    Haunted  by your gho-ost

A        E                    D7M  B9
Lay down black gives way to blue
A        E
Lay down I'll remember you

( D7M  B9  A  E )
( D7M  B9  A  C#7 )

D7M          B9        A     E
    Fading out by design
D7M             B9           A     E
    Consciously avoiding changes
D7M              B9           A    E
    Curtains drawn now it's done
D7M         B9       A
    Silencing all tomorrows
    C#7           D7M  B9
    Forcing a goodbye

A        E                    D7M  B9
Lay down black gives way to blue
A        C#7            D
Lay down I'll remember you
Otros videos de esta canción
    20.546 exhibiciones
      • ½ Tono
      • A
      • Bb
      • B
      • C
      • Db
      • D
      • Eb
      • E
      • F
      • F#
      • G
      • Ab
    • Agregar a la lista

    Afinación de cifrado

    Afinador online

      OK