Cifra Club

Bleed The Freak

Alice In Chains

Cifrado: Principal (guitarra y guitarra eléctrica)
Selo Cifra Club: esta cifra foi revisada para atender aos critérios oficiais da nossa Equipe de Qualidade.
tono: Ab (forma dos acordes no tom de A) Afinación: Eb Ab Db Gb Bb Eb
[Intro]

E|----------------------------------------------------|
B|----------------------------------------------------|
G|--------4--------4-----4-------------4--------4-----|
D|-----4--------4-------------------4-----4--------4--|
A|--2-----------------0----------2-----------2--------|
E|-----------3----------------0-----------------------|

E|---------------------------------------------------|
B|---------------------------------------------------|
G|--------4--------4-----4------------------4-----4--|
D|-----4--------4------------------------------4-----|
A|--2-----------------0-------0----------2-----------|
E|-----------3--------------------3--0----------------|

E|---------------------------------------------------|
B|---------------------------------------------------|
G|--------4--------4--2--4---2--0----------4---------|
D|-----4--------4------------------2----------4------|
A|--2-----------------------------------2--------2---|
E|-----------3---------------------------------------|

E|----------------------------------------------------|
B|----------------------------------------------------|
G|--------4--------4-----4-------------4--------4-----|
D|-----4--------4-------------------4-----4--------4--|
A|--2-----------------0----------2-----------2--------|
E|-----------3----------------0-----------------------|

E|----------------------------------------------------|
B|----------------------------------------------------|
G|--------4--------4-----4-------------4--------4-----|
D|-----4--------4-------------------4-----4--------4--|
A|--2-----------------0----------2-----------2--------|
E|-----------3----------------0-----------------------|

E|---------------------------------------------------|
B|---------------------------------------------------|
G|--------4--------4-----4------------------4--------|
D|-----4--------4------------------------------4-----|
A|--2-----------------0-------0----------2--------2--|
E|-----------3-------------------3--0----------------|
E|---------------------------------------------------|
B|---------------------------------------------------|
G|--------4--------4--2--4----2--0----------4--------|
D|-----4--------4-------------------2----------4-----|
A|--2------------------------------------2--------2--|
E|-----------3---------------------------------------|


  My                             cup     run-neth   o -
E|----------------------------------------------------|
B|----------------------------------------------------|
G|--------4--------4-----4-------------4--------4-----|
D|-----4--------4-------------------2-----4--------4--|
A|--2-----------------0----------2-----------2--------|
E|-----------3----------------0-----------------------|

   Ver
E|---------------------------------------------------|
B|---------------------------------------------------|
G|--------4--------4-----4---------------------4-----|
D|-----4--------4---------------------------4-----4--|
A|--2-----------------0-------0----------2-----------|
E|-----------3-------------------3--0----------------|

   Like                           blood from a   stone
E|----------------------------------------------------|
B|----------------------------------------------------|
G|--------4--------4-----4-------------4--------4-----|
D|-----4--------4-------------------4-----4--------4--|
A|--2-----------------0----------2-----------2--------|
E|-----------3----------------0-----------------------|


E|--------------------------------------------------|
B|--------------------------------------------------|
G|--------4--------4-----4--------------------------|
D|-----4--------4-----------------------------------|
A|--2-----------------0-------0---------------------|
E|-----------3-------------------3--0---------------|

Chorus

    These  stand  for me
E|------------------------------------------------------|
B|------------------------------------------------------|
G|--4-------------2---2---------------------------------|
D|--4------5------2---2---2------(2)--------------------|
A|--2------5------0---0---2------(2)--------------------|
E|---------3--------------0------(0)--------------------|


    Name your god and bleed the freak
E|------------------------------------------------|
B|------------------------------------------------|
G|--4-------------2---2---------------------------|
D|--4------5------2---2--------2------------------|
A|--2------5------0---0--------2------------------|
E|---------3---------------3---0------------------|


    I      like   to  see
E|-----------------------------------------------------|
B|-----------------------------------------------------|
G|--4-------------2---2--------------------------------|
D|--4------5------2---2---2----------------------------|
A|--2------5------0---0---2----------------------------|
E|---------3--------------0----------------------------|


    How you all would bleed for me
E|------------------------------------------------|
B|------------------------------------------------|
G|--4-------------2---2---------------------------|
D|--4------5------2---2--------2------------------|
A|--2------5------0---0--------2------------------|
E|---------3---------------3---0------------------|

                                       When The Pig
E|-------------------------------------------------------|
B|-------------------------------------------------------|
G|-------------------------------------------------------|
D|------------------------3/---4\------------------------|
A|------------------------1/---2\------------------------|
E|-------------------------------------------------------|

E|-------------------------------------------------------|
B|-------------------------------------------------------|
G|-------------------------------------------------------|
D|--3/---4\----------------------------------------------|
A|--1/---2\---3/---4\---3---3---3---3---3---3------------|
E|------------1/---2\---1---1---1---1---1---1------------|
                Runs      slower

E|---------------------------------------------------------|
B|---------------------------------------------------------|
G|---------------------------------------------------------|
D|-------------------------------------3/------------------|
A|--3----3----3----3----3----3----3----1/------------------|
E|--1----1----1----1----1----1----1------------------------|

                        Let       the
E|----------------------------------------|
B|----------------------------------------|
G|----------------------------------------|
D|--4\---3/---4---------------------------|
A|--2\---1/---2----3/---4\---3----3----3--|
E|-----------------1/---2\---1----1----1--|

    Arrow     fly
E|----------------------------------------|
B|----------------------------------------|
G|----------------------------------------|
D|-------------------------------------3/-|
A|--3----3----3----3----3----3----3----1/-|
E|--1----1----1----1----1----1----1-------|

                   When  the       sin
E|----------------------------------------|
B|----------------------------------------|
G|----------------------------------------|
D|--4\---3/---4---------------------------|
A|--2\---1/---2----3/---4\---3----3----3--|
E|-----------------1/---2\---1----1----1--|


       Lies        boulder
E|----------------------------------------|
B|----------------------------------------|
G|----------------------------------------|
D|-------------------------------------3/-|
A|--3----3----3----3----3----3----3----1/-|
E|--1----1----1----1----1----1----1-------|

                   I'll pluck out            thine     eye
E|--------------------------------------------------------|
B|--------------------------------------------------------|
G|--------------------------------------------------------|
D|---4/---3\---4------------------------------------------|
A|---2/---1\---2---3/---4\---3---3---3---3---3---3---3----|
E|-----------------1/---2\---1---1---1---1---1---1---1----|

E|--------------------------------------------------------|
B|--------------------------------------------------------|
G|--------------------------------------------------------|
D|---7----------------------------------------------------|
A|---5---7------------------------------------------------|
E|-------5------------------------------------------------|

    These  stand  for     me
E|-----------------------------------------------------|
B|-----------------------------------------------------|
G|--4-------------2---2--------------------------------|
D|--4------5------2---2---2----------------------------|
A|--2------5------0---0---2----------------------------|
E|---------3--------------0----------------------------|

    Name your god and bleed the freak
E|----------------------------------------------|
B|----------------------------------------------|
G|--4-------------2---2-------------------------|
D|--4------5------2---2--------2----------------|
A|--2------5------0---0--------2----------------|
E|---------3---------------3---0----------------|


    I      like   to  see
E|-----------------------------------------------------|
B|-----------------------------------------------------|
G|--4-------------2---2--------------------------------|
D|--4------5------2---2---2----------------------------|
A|--2------5------0---0---2----------------------------|
E|---------3--------------0----------------------------|


    How you all would bleed for me              If You
E|-----------------------------------------------------|
B|-----------------------------------------------------|
G|-----------------------------------------------------|
D|----4/---3\---4/-------------------------------------|
A|----2/---1\---2/---3/---4\---3---3---3---------------|
E|-------------------1/---2\---1---1---1---------------|
    Scorn

E|-----------------------------------------|
B|-----------------------------------------|
G|-----------------------------------------|
D|---4\---3/---4\--------------------------|
A|---2\---1/---2\---3/---4\---3----3----3--|
E|------------------1/---2\---1----1----1--|

    My   lo   -    ver
E|----------------------------------------|
B|----------------------------------------|
G|----------------------------------------|
D|-------------------------------------3/-|
A|--3----3----3----3----3----3----3----1/-|
E|--1----1----1----1----1----1----1-------|

                        Satan     got
E|----------------------------------------|
B|----------------------------------------|
G|----------------------------------------|
D|--4\---3/---4---------------------------|
A|--2\---1/---2----3/---4\---3----3----3--|
E|-----------------1/---2\---1----1----1--|


    Your      thigh
E|----------------------------------------|
B|----------------------------------------|
G|----------------------------------------|
D|-------------------------------------3/-|
A|--3----3----3----3----3----3----3----1/-|
E|--1----1----1----1----1----1----1-------|

                   If    you  steal
E|----------------------------------------|
B|----------------------------------------|
G|----------------------------------------|
D|--4\---3/---4---------------------------|
A|--2\---1/---2----3/---4\---3----3----3--|
E|-----------------1/---2\---1----1----1--|


       In          hunger
E|----------------------------------------|
B|----------------------------------------|
G|----------------------------------------|
D|-------------------------------------3/-|
A|--3----3----3----3----3----3----3----1/-|
E|--1----1----1----1----1----1----1-------|

                   I     will     kick
E|------------------------------------------------------|
B|------------------------------------------------------|
G|------------------------------------------------------|
D|---4/---3\---4----------------------------------------|
A|---2/---1\---2---3/---4\---3---3---3---3---3---3------|
E|-----------------1/---2\---1---1---1---1---1---1------|
                                       You when you try

E|-------------------------------------------------------|
B|-------------------------------------------------------|
G|-------------------------------------------------------|
D|---7---------------------------------------------------|
A|---5---7-----------------------------------------------|
E|-------5-----------------------------------------------|

    These  stand  for     me
E|-----------------------------------------------------|
B|-----------------------------------------------------|
G|--4-------------2---2--------------------------------|
D|--4------5------2---2---2----------------------------|
A|--2------5------0---0---2----------------------------|
E|---------3--------------0----------------------------|

    Name your god and bleed the freak
E|----------------------------------------------|
B|----------------------------------------------|
G|--4-------------2---2-------------------------|
D|--4------5------2---2--------2----------------|
A|--2------5------0---0--------2----------------|
E|---------3---------------3---0----------------|


    I      like   to  see
E|-----------------------------------------------------|
B|-----------------------------------------------------|
G|--4-------------2---2--------------------------------|
D|--4------5------2---2---2----------------------------|
A|--2------5------0---0---2----------------------------|
E|---------3--------------0----------------------------|

    How you all would bleed for me
E|-----------------------------------------------|
B|-----------------------------------------------|
G|--4----------------------2---------------------|
D|--4------5------2---2----2-------2-------------|
A|--2------5------0---0----0-------2-------------|
E|---------3-------------------3---0-------------|


  Guitar Solo

E|------------------------------------------------------|
B|---------------------------------------------------------|
G|---------------------------------------------------------|
D|--6------2---2---4---4-----------------------------------|
A|--4------0---0---2---2---4----(4)------------------------|
E|-------------------------2----(2)------------------------|


E|------------------------------------------------|
B|------------------------------------------------|
G|------------------------------------------------|
D|--6------2---2---4---4----4---2-----------------|
A|--4------0---0---2---2----2---0---4-------------|
E|----------------------------------2-------------|


E|---------------------------------------------------------|
B|---------------------------------------------------------|
G|---------------------------------------------------------|
D|--6------2---2---4---4-----------------------------------|
A|--4------0---0---2---2---4----(2)------------------------|
E|-------------------------2----(4)------------------------|


E|------------------------------------------------|
B|------------------------------------------------|
G|------------------------------------------------|
D|--6------2---2---4---4----4---2-----------------|
A|--4------0---0---2---2----2---0---4------(4)----|
E|----------------------------------2------(2)----|

   Volume desta nota aumenta
E|------------------------------------------------|
B|------------------------------------------------|
G|-----------------9------------------------------|
D|------------------------------------------------|
A|------------------------------------------------|
E|------------------------------------------------|


E|----------------------------------------------------|
B|----------------------------------------------------|
G|--------4--------4-----4-------------4--------4-----|
D|-----4--------4-------------------4-----4--------4--|
A|--2-----------------0----------2-----------2--------|
E|-----------3----------------0-----------------------|


E|---------------------------------------------------|
B|---------------------------------------------------|
G|--------4--------4-----4------------------4--------|
D|-----4--------4------------------------------4-----|
A|--2-----------------0-------0----------2--------2--|
E|-----------3-------------------3--0----------------|


E|----------------------------------------------------|
B|----------------------------------------------------|
G|--------4--------4-----4-------------4--------4-----|
D|-----4--------4-------------------4-----4--------4--|
A|--2-----------------0----------2-----------2--------|
E|-----------3----------------0-----------------------|

E|---------------------------------------------------|
B|---------------------------------------------------|
G|--------4--------4-----4------------------4--------|
D|-----4--------4------------------------------4-----|
A|--2-----------------0-------0----------2--------2--|
E|-----------3-------------------3--0----------------|


E|----------------------------------------------------|
B|----------------------------------------------------|
G|--------4--------4-----4-------------4--------4-----|
D|-----4--------4-------------------4-----4--------4--|
A|--2-----------------0----------2-----------2--------|
E|-----------3----------------0-----------------------|


E|---------------------------------------------------|
B|---------------------------------------------------|
G|--------4--------4-----4------------------4--------|
D|-----4--------4------------------------------4-----|
A|--2-----------------0-------0----------2--------2--|
E|-----------3-------------------3--0----------------|


E|----------------------------------------------------|
B|----------------------------------------------------|
G|--------4--------4-----4-------------4--------4-----|
D|-----4--------4-------------------4-----4--------4--|
A|--2-----------------0----------2-----------2--------|
E|-----------3----------------0-----------------------|


E|---------------------------------------------------|
B|---------------------------------------------------|
G|--------4--------4-----4------------------4--------|
D|-----4--------4------------------------------4-----|
A|--2-----------------0-------0----------2--------2--|
E|-----------3-------------------3--0----------------|


E|----------------------------------------------------|
B|----------------------------------------------------|
G|--------4--------4-----4-------------4--------4-----|
D|-----4--------4-------------------4-----4--------4--|
A|--2-----------------0----------2-----------2--------|
E|-----------3----------------0-----------------------|

                                          Bleed for
E|---------------------------------------------------|
B|---------------------------------------------------|
G|--------4--------4-----4------------------4--------|
D|-----4--------4------------------------------4-----|
A|--2-----------------0-------0----------2--------2--|
E|-----------3-------------------3--0----------------|

    Me                                  Bleed for me
E|----------------------------------------------------|
B|----------------------------------------------------|
G|--------4--------4-----4-------------4--------4-----|
D|-----4--------4-------------------4-----4--------4--|
A|--2-----------------0----------2-----------2--------|
E|-----------3----------------0-----------------------|

           (Ah________)
E|---------------------------------------------------|
B|---------------------------------------------------|
G|--------4--------4-----4---------------------------|
D|-----4--------4------------------------------------|
A|--2-----------------0-------0----------2--2--2--2--|
E|-----------3-------------------3--0----0--0--0--0--|


    These  stand  for     me
E|-----------------------------------------------------|
B|-----------------------------------------------------|
G|--4-------------2---2--------------------------------|
D|--4------5------2---2---2----------------------------|
A|--2------5------0---0---2----------------------------|
E|---------3--------------0----------------------------|

    Name your god and bleed the freak
E|----------------------------------------------|
B|----------------------------------------------|
G|--4-------------2---2-------------------------|
D|--4------5------2---2--------2----------------|
A|--2------5------0---0--------2----------------|
E|---------3---------------3---0----------------|


    I      like   to  see
E|-----------------------------------------------------|
B|-----------------------------------------------------|
G|--4-------------2---2--------------------------------|
D|--4------5------2---2---2----------------------------|
A|--2------5------0---0---2----------------------------|
E|---------3--------------0----------------------------|

    How you all would bleed for me
E|-----------------------------------------------|
B|-----------------------------------------------|
G|--4----------------------2---------------------|
D|--4------5------2---2----2-------2-------------|
A|--2------5------0---0----0-------2-------------|
E|---------3-------------------3---0-------------|


    These  stand  for me
E|---------------------------------------------------|
B|---------------------------------------------------|
G|--4-------------2---2------------------------------|
D|--4------5------2---2---2--------------------------|
A|--2------5------0---0---2--------------------------|
E|---------3--------------0--------------------------|


    Name your god and blead the freak
E|----------------------------------------------|
B|----------------------------------------------|
G|--4-------------2---2-------------------------|
D|--4------5------2---2--------2----------------|
A|--2------5------0---0--------2----------------|
E|---------3---------------3---0----------------|

    I      like   to  see
E|----------------------------------------------------|
B|----------------------------------------------------|
G|--4-------------------------------------------------|
D|--4------5------2---2---2---------------------------|
A|--2------5------0---0---2---------------------------|
E|---------3--------------0---------------------------|

    How you all   would bleed for me
E|----------------------------------------------------|
B|----------------------------------------------------|
G|--4-------------------------------------------------|
D|--4------5------2---2--------2----------------------|
A|--2------5------0---0--------2----------------------|
E|---------3---------------3---0---------|
Otros videos de esta canción
    1.050 exhibiciones
      • ½ Tono
      • A
      • Bb
      • B
      • C
      • Db
      • D
      • Eb
      • E
      • F
      • F#
      • G
      • Ab
    • Agregar a la lista

    Afinação da cifra

    Afinador online

      Ops (: Contenido disponible solo en portugués.
      OK