Cifra Club

Brother

Alice In Chains

Cifrado: Principal (guitarra y guitarra eléctrica)
Selo Cifra Club: esta cifra foi revisada para atender aos critérios oficiais da nossa Equipe de Qualidade.
tono: B (con acordes en la forma de C) Afinación: Eb Ab Db Gb Bb Eb
Intro
    A7                                |   Riff 1   |
E|--0----0---0-0--0---0--0---0--0--0--0---------------------------------|
B|--2----2---2-2--2---2--2---2--2--2--2--3-/-5--3--2--------------------|
G|--0----0---0-0--0---0--0---0--0--0--0--0-/-0--0--0--------------------| (4x)
D|--2----2---2-2--2---2--2---2--2--2--2--3-/-5--3--2--------------------|
A|--0----0---0-0--0---0--0---0--0--0--0--0-/-0--0--0--------------------|
E|----------------------------------------------------------------------|

E|----------------------------------------------------------------------|
B|--------------------5b6r5--------------------------5b6r5-------8b9r8--|
G|--------------------------6b7r6--------------------------6b7r6--------|
D|-----------------5------------------------------5---------------------|
A|--------3--5--7------------------------3--5--7------------------------|
E|--3--5---------------------------3--5---------------------------------|

E|----------------------------------------------------------------------|
B|--------------------5b6r5---------------------------------------------|
G|--------------------------6b7r6---------------------------------------|
D|-----------------5------------------------------5---------------------|
A|--------3--5--7------------------------3--5--7------------------------|
E|--3--5---------------------------3--5---------------------------------|

[Primeira Parte]

A7 (Riff 1)
Frozen in the place I hide
A7 (Riff 1)
Not afraid to paint my sky with
A7 (Riff 1)
Some who say I've lost my mind
A7 (Riff 1)
Brother try and hope to find

[Primeiro Refrão]

F                           A7 A7(4)  A7  A5  A7(4)  A7
You were always so far away
F                  G
I know that pain so don't you run away

Like you used to do

    A7                                
E|--0----0---0-0--0---0--0---0--0--0--0---------------------------------|
B|--2----2---2-2--2---2--2---2--2--2--2--3-/-5--3--2--------------------|
G|--0----0---0-0--0---0--0---0--0--0--0--0-/-0--0--0--------------------|
D|--2----2---2-2--2---2--2---2--2--2--2--3-/-5--3--2--------------------|
A|--0----0---0-0--0---0--0---0--0--0--0--0-/-0--0--0--------------------|
E|----------------------------------------------------------------------|

E|----------------------------------------------------------------------|
B|--------------------5b6r5--------------------------5b6r5-------8b9r8--|
G|--------------------------6b7r6--------------------------6b7r6--------| (2x)
D|-----------------5------------------------------5---------------------|
A|--------3--5--7------------------------3--5--7------------------------|
E|--3--5---------------------------3--5---------------------------------|

[Segunda Parte]

A7 (Riff 1)
Roses in a vase of white
A7 (Riff 1)
Bloodied by the thorns beside the leaves
A7 (Riff 1)
That fall because my hand
A7 (Riff 1)
Is pulling them hard as I can

[Segundo Refrão]

F                          A7 A7(4)  A7  A5  A7(4)  A7
You were always so far away
F                     G
I know that pain and I won't run away

Like I used to do
A7 (Riff 1)
Like I used to do

[Solo] F  A7  A7(4)  A7  A5  A7(4)  A7 (Riff 1)

E|------------------------------------------------5---5---------|
B|----------------------------------------------5---5-----------|
G|-----------------5--7-7b8r7----5-----5---7b8------------------|
D|-0-0-5h7--7--5-7------------------7---------------------------|
A|--------------------------------------------------------------|
E|--------------------------------------------------------------|

E|--------------------------------------------------------------|
B|-5--8b10r8--8--7-5--7b8r7---5---------------------------------|
G|------------------------------7-5--r7b8--7--5-----------------|
D|----------------------------------------------7-7-5h7-7-------|
A|---------------------------------------------------------5--3-|
E|--------------------------------------------------------------|

E|--------------------------------------------------------------|
B|--------------------------------------------------------------|
G|----------------------------------5-7h8r7--5--7p5--5----------|
D|-----------------------------5-7------------------------------|
A|-5--5b6r5--3----------3--5h7----------------------------------|
E|-------------5--3--5------------------------------------------|

E|-------------------------------------------------------5------|
B|--8----8-------------------------------------------5----------|
G|--7b8--7b8--7p5----7b8--7b8--7b8r7p5---------------5----------|
D|----------------7--------------------7---7---5h7--------------|
A|--------------------------------------------------------------|
E|--------------------------------------------------------------|

E|-8b10r8--5----------------------------------------------------|
B|------------8b10r8----7--5-7b8r7-5----------------------------|
G|-----------------------------------7-5-7b8r7-5----------------|
D|-------------------------------------------------7-5-5-5h7----|
A|--------------------------------------------------------------|
E|--------------------------------------------------------------|

[Terceira Parte]

(Apenas voz)

Pictures in a box at home

Yellowing and green with mold

So I can barely see your face

Wonder how that color taste

[Terceiro Refrão]

F                          A7 A7(4)  A7  A5  A7(4)  A7
You were always so far away
F                 G
I know the way so don't you run away

Like you used to do
A7 (Riff 1)
Like you used to do

E|----------------------------------------------------------------------|
B|--------------------5b6r5--------------------------5b6r5-------8b9r8--|
G|--------------------------6b7r6--------------------------6b7r6--------|
D|-----------------5------------------------------5---------------------|
A|--------3--5--7------------------------3--5--7------------------------|
E|--3--5---------------------------3--5---------------------------------|
Otros videos de esta canción
    49.149 exhibiciones
      • ½ Tono
      • A
      • Bb
      • B
      • C
      • Db
      • D
      • Eb
      • E
      • F
      • F#
      • G
      • Ab
    • Agregar a la lista

    Afinación de cifrado

    Afinador online

      OK