Cifra Club

God Am

Alice In Chains

Cifrado: Versão 5 (guitarra y guitarra eléctrica)
Selo Cifra Club: esta cifra foi revisada para atender aos critérios oficiais da nossa Equipe de Qualidade.
tono: C
E|---------------|
B|---------------|
G|-4--4-2-2-4----|
D|-4--4-2-2-4-3--|
A|-2--2-0-0-2-3--|
E|------------1--|



Main Verse Riff 

E|------1--------------0---|-------1--------------------| |
B|------1--------------0---|-------1--------------------| |
G|------2------------------|-------2------4--4-2-2-4----| |
D|----3----3-3-3--3--3-----|-3--3-----x-x-4--4-2-2-4-3--| |
A|----3----3-3-3--3--3-----|-3--3-----x-x-2--2-0-0-2-3--| |
E|----1----1-1-1--1--1-----|-1--1-----x-x------------1--| |
            "Dear God, how have you been then? 
             I'm not fine, fuck pretending 
             All of this death your sending 
             Best throw some free heart mending 
             Invite you in my heart then 
             When done, my sins forgiven? 
             This God of mine relaxes 
             World dies I still pay taxes"


Chorus-
       
  1             3       4          1        3    4
E|-------------------------------|----------------------|
B|-------------------------------|----------------------|
G|-------------------------------|-----------4------4---|
D|-3-------------5-------7-------|-(7)-------4------4---|
A|-3-------------5-------7-------|-(7)-------2----0h2---|
E|-1-------------3-------5-------|-(5~~~~)--------------|
|
|
| Lead (with some ad lib on pinch harmonics)
E|-17P| H~~~-----------------------|-------------------15-------|
B|---------------15P| H_b16r15--15-|-(15)--------15h17----17p15-|
G|-------------------------------|----------------------------|
D|-------------------------------|----------------------------|
A|-------------------------------|----------------------------|
E|-------------------------------|----------------------------|
 "Can you be as God am 
  Can I be as my God am 
  Can I be as my God am 
  God of all my God am"



Play Verse Again 4x,  Lyrics:

"So Lord, I see you grinnin' 
Must be grand always winning 
How proud are you being able 
To gather faith from fable"



Play Chorus Again



Break & Solo (2:30)

 Rhythm
E|-------------------------------|----------------------------|
B|-------------------------------|---------------------5-5----|
G|-5----/9-9-9-9-9\7-7-7-5-5-4/5-|-4-2~~~------2-2-4~------4--|
D|-------------------------------|---------------------2-2----|
A|-3----/7-7-7-7-7\5-5-5-3-3-2/3-|-2-0~~~------0-0-2~------2--|
E|-------------------------------|----------------------------|
|
|Lead Gtr Solo
E|-------------------------------|-----------------------------|
B|---10-10-10---10-10-10-10-10-10|------5-5-5-5----5-5-5---5-5-|
G|---12---------12-------12------|------7----------7-----7-----|
D|-------------------------------|-----------------------------|
A|-------------------------------|-----------------------------|
E|-------------------------------|-----------------------------|


 Lead Gtr Continued (Rhythm repeats)
E|------------------------------------------|--------------------------|
B|-13b15r13--10--10----------------10-10b12-|-(b12)--------------------|
G|-------------12--12b14~~-12-10-12---------|--------12h14p12p10~~~~---|
D|------------------------------------------|--------------------------|
A|------------------------------------------|--------------------------|
E|------------------------------------------|--------------------------|


E|-0------------------------0---|--------------------|--------------------|
B|-5b6--5---5---0-0---0-0-3-3b5-|-(b5)___| gr----------|-0----5-5-5-5-5-----|
G|--------7---7-5-4---4-5-------|-------------0--2---|------2-------------|
D|------------------------------|--------------------|--------------------|
A|------------------------------|--------------------|--------------------|
E|------------------------------|--------------------|--------------------|

E|-----------------------|-------------------------|
B|-----------10b12r10b12___(b12~)------------------|
G|-(0)-------------------|----------10p9-----------|
D|-----------------------|--------------12p10~~~~~-| use echo here
A|-----------------------|-------------------------|
E|-----------------------|-------------------------|



Play Verse Again 4x, Lyrics:

"All the respect I'm giving
 Shared strength acquired by living 
 All blooming life you're feeding 
 Can't hide sick ones you're weeding"



Play Chorus Again



Ending (3:43) - with rhythm playing Chorus part

E|-0------------------------0---|--------------------|---------------|
B|-5b6--5---5---0-0---0-0-3-3b5-|-(b5)___| gr----------|-0-------------|
G|--------7---7-5-4---4-5-------|-------------0--2---|-2----0--------|
D|------------------------------|--------------------|---------------|
A|------------------------------|--------------------|---------------|
E|------------------------------|--------------------|---------------|
                                            "God    am"

E|-------------------------------------|-0-------------------------0---|
B|-------------10-10-10----10-13b15~~--|-5b6--5---5---0-0----0-0-3-3b5-|
G|-(0)---------12-------12-------------|--------7---7-5-4----4-5-------|
D|-------------------------------------|-------------------------------|
A|-------------------------------------|-------------------------------|
E|-------------------------------------|-------------------------------|
                                 "God    am"

E|---------------------|---------------|---------------------|
B|-(b5)___| gr---------1-|-0--5----------|-(5)--------/10~~~~~-|
G|-------------0--2----|-2--2----------|---------------------|
D|---------------------|---------------|---------------------|
A|---------------------|---------------|---------------------|
E|---------------------|---------------|---------------------|
               "God    am"                              "God    am"


KEY
| /   slide up
| \   slide down
| h   hammer-on
| p   pull-off
| b   bend string to higher note indicated
| r   release bend
| gr  gradual release (slow & dramatic)
| ~   vibrato
| PH  pinch harmonic
| x   Mute note
| ()  note held over from previous bar
Otros videos de esta canción
    1 exhibiciones
      • ½ Tono
      • A
      • Bb
      • B
      • C
      • Db
      • D
      • Eb
      • E
      • F
      • F#
      • G
      • Ab
    • Agregar a la lista

    Afinação da cifra

    Afinador online

      Ops (: Contenido disponible solo en portugués.
      OK