Cifra Club

Love, Hate, Love

Alice In Chains

Cifrado: Principal (guitarra y guitarra eléctrica)
Selo Cifra Club: esta cifra foi revisada para atender aos critérios oficiais da nossa Equipe de Qualidade.
tono: E
Intro: (With Chorusing)

------------------0------------0---l--------------------12-----------------------------
-------------9-------------6-------l----------------9------------------13-----12-----
-------10-------------7------------l-----------10-------------/-14------------13----
---0-------------------------------l----------------------------------------------------
-----------------------------------l----------------------------------------------------
-----------------------------------l-----0---------------------------------------------
Do that one more time and then do this part and repeat it:

-----------------0------------0----------------l--------------12-----------------------
-------------9------------6------------6-------l-----------9---------------13----12--
-------10-------------7---------------------7--l------10-----------/-14----------13-
---0-------------------------------------------l-----------------------------------------
-----------------------------------------------l-----------------------------------------
-----------------------------------------------l--0-------------------------------------

Verse: (Distortion) PM everything.

-----------------------------------------------------------------------------------------
-----------------------------------------------------------------------------------------
----10----------10---10----9----10--------9----10-------------------------------
----12----------12---12---12---12--------12---12------------------------------
----------------------------------------------------------------------------------------
----------------------------------------------------------------------------------------

----------------------------------------------------------------------------------------
----------------------------------------------------------------------------------------
---10-------------10--10---9----10---------9----10-----------------------------
----9---------------9----9---9-----9----------9-----9------------------------------
----------------------------------------------------------------------------------------
----------------------------------------------------------------------------------------
Repeat it a few times then:  (PM all of this too)

-----------------------------------------------------------------------------------------
-------------------9---------6-------6---------------9--------9--\--6--------6------
------------------10--------7-------7--------------10-------10-\--7--------7------
---0---0---0-----------0-------0-------0---0------------0---------------0----------
------------------------------------------------------------------------------------------
------------------------------------------------------------------------------------------

------------------9---------13--------12----------------------------------------------
-----------------10--------14---------13---------------------------------------------
-----------------------------------------------------------------------------------------
------------------------------------------------------9-9-9-9-9-9-9-9-9-----------
------------------------------------------------------7-7-7-7-7-7-7-7-7-----------
---0---0---0----------0-----------0----------0--------------------------------------
Repeat the above two measures, but leave out the E chords at the end.

Yes, I'll throw in the solo:

------------------------------------------------------------------l------------------------
------------------------------------------------------------------l------------------------
------------------------------------------------------------------l------------------------
--------------------------------~~------------------------------l------------------------
---5 B|---------5---7 B|-----7-----------5----7--------------l------------------------
---------------------------------------------------------8----5--l---7-------3-B|----0-

------------4----------~~--l------------------------------------------------------------------------
-------5---------------5----l-----15-B P 12-----------------------------------------------------
-----------------------------l-------------------------14 B P 12------~~-----------------12---
--6--------------------------l-------------------------------------------14-------12--14--- 12--
------------------------------l------------------------------------------------------------------------
------------------------------l------------------------------------------------------------------------

-------------------------------------------------------------------------------------------
-------------------------------------------------------------------------------------------
-------------------------------------------------------------------------------------------
------7--6---------------------------------------~~~----------------------------------
--------------7---8---------5----7-----7-B|---7---------------------------------------
------------------------8-----------------------------------------------------------------

----------------------------------12----------10----------------------------------------
----------------9---10---12----------12---------------10---9------------~~~~~-
---9---10------------------------------------------------------------10----9----------
-------------------------------------------------------------------------------------------
-------------------------------------------------------------------------------------------
-------------------------------------------------------------------------------------------

-------------------------------------------------------------------------------------------
----------------------------------10-----9-----------------------------------------------
----------------------------------10-----7-----------------------------------------------
---9---10---12-------------------------------------------------------------------------
---------------------11---12------------------------------------------------------------
-------------------------------------------------------------------------------------------

-------------------------------------------------------------------------------------------------------
-------------------------------------------------------------------------------------------------------
----------------------------------9--B|-------9-P-10-P-12-P-10-P-9-------------------------
-------------------7--B|--------------------------------------------------------12-P-10-P-9-\-7-
----5--B|---0--------------7------------------------------------------------------------------------
-------------------------------------------------------------------------------------------------------

-----------------------------------------------------l--------------10---10-------12--12--
Otros videos de esta canción
    26.712 exhibiciones
      • ½ Tono
      • A
      • Bb
      • B
      • C
      • Db
      • D
      • Eb
      • E
      • F
      • F#
      • G
      • Ab
    • Agregar a la lista

    Afinación de cifrado

    Afinador online

      OK