Cifra Club

Man In The Box

Alice In Chains

Cifrado: Principal (guitarra y guitarra eléctrica)
Selo Cifra Club: esta cifra foi revisada para atender aos critérios oficiais da nossa Equipe de Qualidade.
tono: Ebm (con acordes en la forma de Em) Afinación: Eb Ab Db Gb Bb Eb
[Intro] E5 (Riff 1)

(Guitarra Base - 3x)

   E5
       P.M         .
E|----------------------------------------------------|
B|----------------------------------------------------|
G|----------------------------------------------------| (3x)
D|----------------------------------------------------|
A|-5-------5--5---------------------------------------|
E|-0----0--0--0----0----------------------------------|

                (Riff1)
       P.M    .
E|----------------------------------------------------|
B|----------------------------------------------------|
G|----------------------------------------------------|
D|----------------------------------------------------|
A|-5-------5---------5--------------------------------|
E|-0----0--0--0--5h7----------------------------------|

Guitarra Solo

E|----------------------------------------------------|
B|----------------------------------------------------|
G|-4---7---/9---\2---2h4---0---0h2---0----------------|
D|---------------------------------------2~~----------|
A|----------------------------------------------------|
E|----------------------------------------------------|

[Primeira Parte] 

E5                     (Riff 1)
I'm the man in the box
 E5               (Riff 2)
Buried in my shit
 G5                 E5
Won't you come and save me
        (Riff 3)
Save me

[Guitarra Solo] 

   E5
       P.M         .
E|----------------------------------------------------|
B|----------------------------------------------------|
G|----------------------------------------------------| (3x)
D|----------------------------------------------------|
A|-5-------5--5---------------------------------------|
E|------0----------0----------------------------------|

                 (Riff 1)
       P.M    .
E|----------------------------------------------------|
B|----------------------------------------------------|
G|----------------------------------------------------|
D|----------------------------------------------------|
A|-5-------5---------5--------------------------------|
E|------0-----0--5h7----------------------------------|

   E5
       P.M         .
E|----------------------------------------------------|
B|----------------------------------------------------|
G|----------------------------------------------------| (3x)
D|----------------------------------------------------|
A|-5-------5--5---------------------------------------|
E|------0----------0----------------------------------|

   (Riff 2)
       P.M
E|----------------------------------------------------|
B|----------------------------------------------------|
G|----------------------------------------------------|
D|----------------------------------------------------|
A|-5-------5--5h7~------------------------------------|
E|------0---------------------------------------------|

   G5
   P.M . . . . . .
E|----------------------------------------------------|
B|----------------------------------------------------|
G|----------------------------------------------------|
D|----------------------------------------------------|
A|-5-5-5-5-5-5-5-5------------------------------------|
E|-3-3-5-3-3-6-3-3------------------------------------|

   P.M . . . . . . . . . . . . . . . . . . . . . .
E|----------------------------------------------------|
B|----------------------------------------------------|
G|----------------------------------------------------|
D|----------------------------------------------------|
A|-5-5-7-5-5-5-7-5-5-5-7-5-5-5-7-5-5-5-7-5-5-5-7-5----|
E|-3-3-3-3-3-3-3-3-3-3-3-3-3-3-3-3-3-3-3-3-3-3-3-3----|

   E5
       P.M
E|----------------------------------------------------|
B|----------------------------------------------------|
G|----------------------------------------------------|
D|----------------------------------------------------|
A|-5--------5---5h7~~--x-x----------------------------|
E|------0-0---0---------------------------------------|

       P.M         .
E|----------------------------------------------------|
B|----------------------------------------------------|
G|----------------------------------------------------| (2x)
D|----------------------------------------------------|
A|-5-------5--5---------------------------------------|
E|------0----------0----------------------------------|

  (Riff 3)
E|----------------------------------------------------|
B|----------------------------------------------------|
G|----------------------------------------------------|
D|----------------------------------------------------|
A|-5h7~--5~-------------------------------------------|
E|-----------7-6-5-3----------------------------------|

[Primeiro Refrão] 

 E5  G5    D5
Feed    my eyes
  A5
(Can you sew them shut?)
 E5  G5        D5
Je______sus Christ
    A5
(Deny your maker)
 E5  G5       D5
He      who tries
  A5
(Will be wasted)
 E5  G5    D5
Feed    my eyes
  A5
(Now you've sewn them shut)

[Intro] E5 (Riff 1)

[Segunda Parte] 

E5                        (Riff 1)
I'm the dog who gets beat
  E5                  (Riff 2)
Shove my nose in shit
 G5                 E5
Won't you come and save me
        (Riff 4)
Save me

[Guitarra Solo] 

   E5
       P.M         .
E|----------------------------------------------------|
B|----------------------------------------------------|
G|----------------------------------------------------| (3x)
D|----------------------------------------------------|
A|-5-------5--5---------------------------------------|
E|------0----------0----------------------------------|

                 (Riff 1)
       P.M    .
E|----------------------------------------------------|
B|----------------------------------------------------|
G|----------------------------------------------------|
D|----------------------------------------------------|
A|-5-------5---------5--------------------------------|
E|------0-----0--5h7----------------------------------|

   E5
       P.M         .
E|----------------------------------------------------|
B|----------------------------------------------------|
G|----------------------------------------------------| (3x)
D|----------------------------------------------------|
A|-5-------5--5---------------------------------------|
E|------0----------0----------------------------------|

         
   (Riff 2)
       P.M
E|----------------------------------------------------|
B|----------------------------------------------------|
G|----------------------------------------------------|
D|----------------------------------------------------|
A|-5-------5--5h7~------------------------------------|
E|------0---------------------------------------------|

   G5
   P.M . . . . . .
E|----------------------------------------------------|
B|----------------------------------------------------|
G|----------------------------------------------------|
D|----------------------------------------------------|
A|-5-5-5-5-5-5-5-5------------------------------------|
E|-3-3-5-3-3-6-3-3------------------------------------|

   P.M . . . . . . . . . . . . . . . . . . . . . .
E|----------------------------------------------------|
B|----------------------------------------------------|
G|----------------------------------------------------|
D|----------------------------------------------------|
A|-5-5-7-5-5-5-7-5-5-5-7-5-5-5-7-5-5-5-7-5-5-5-7-5----|
E|-3-3-3-3-3-3-3-3-3-3-3-3-3-3-3-3-3-3-3-3-3-3-3-3----|

   E5
       P.M
E|----------------------------------------------------|
B|----------------------------------------------------|
G|----------------------------------------------------|
D|----------------------------------------------------|
A|-5--------5---5h7~~--x-x----------------------------|
E|------0-0---0---------------------------------------|

       P.M         .
E|----------------------------------------------------|
B|----------------------------------------------------|
G|----------------------------------------------------| (2x)
D|----------------------------------------------------|
A|-5-------5--5---------------------------------------|
E|------0----------0----------------------------------|

   (Riff 4)
E|----------------------------------------------------|
B|-14b15r14~~--14b15r14-12----------------------------|
G|-14b15r14~~--14b15r14-12----------------------------|
D|--------------------------14--12\-------------------|
A|----------------------------------------------------|
E|----------------------------------------------------|

[Segundo Refrão] 

 E5  G5    D5
Feed    my eyes
  A5
(Can you sew them shut?)
 E5  G5        D5
Je______sus Christ
    A5
(Deny your maker)
 E5  G5       D5
He      who tries
  A5
(Will be wasted)
 E5  G5    D5
Feed    my eyes
  A5
(Now you've sewn them shut)

[Solo 1] E5 (Riff 1)

E|----------------------------------------------------|
B|----------------------------------------------------|
G|----------------------------------------------------|
D|-0h2p0h2p...----------------------------------------|
A|----------------------------------------------------|
E|----------------------------------------------------|

E|----------------------------------------------------|
B|----------------------------------------------------|
G|-----7-9-9b12r----9-7-------------------------------|
D|-7/9------------------9-8-7-5-7-0-7b8r7~~-----------|
A|----------------------------------------------------|
E|----------------------------------------------------|

E|----------------------------------------------------|
B|----------------------------------------------------|
G|-14b16-b16-b16-b16-b16r...--14b16r14p12-------------|
D|----------------------------------------14~---------|
A|----------------------------------------------------|
E|----------------------------------------------------|

E|----------------------------------------------------|
B|-----12h15p12----12h15p12-15b17~~-------------------|
G|-14-----------14------------------------------------|
D|----------------------------------------------------|
A|----------------------------------------------------|
E|----------------------------------------------------|

E|-------12-15-15b18r----12---------------------------|
B|-15b17--------------------15------------15----------|
G|-----------------------------12h14~~b16----14b16~~--|
D|----------------------------------------------------|
A|----------------------------------------------------|
E|----------------------------------------------------|

E|----------------------------------------------------|
B|-0--------------------------------------------------|
G|-2b4------------------------------------------------|
D|----------------------------------------------------|
A|----------------------------------------------------|
E|----------------------------------------------------|

[Solo 2] G5
         E5

E|----------------------------------------------------|
B|----------------------------------------------------|
G|----------------------------------------------------|
D|---------5------------------------------------------|
A|-------x---7~---------------------------------------|
E|-0h3-x----------------------------------------------|

E|----------------------------------------------------|
B|----------------------------------------------------|
G|-----------12------14b16--14--12--------------------|
D|-x-12h14-x----x-14----------------14~---------------|
A|----------------------------------------------------|
E|----------------------------------------------------|

E|----------------------------------------------------|
B|-12--------------------------------15~--------------|
G|----15-14-12-12b14~~---12b14-12---------------------|
D|--------------------------------14------------------|
A|----------------------------------------------------|
E|----------------------------------------------------|

E|----12-15-15b17r15p12-------------------------------|
B|-15-------------------15~~--------------------------|
G|----------------------------------------------------|
D|----------------------------------------------------|
A|----------------------------------------------------|
E|----------------------------------------------------|

E|----------------------------------------------------|
B|----------------------------------------------------|
G|-12-12-x-x-x-x-12--x-x-12--12-12-12-12\-------------|
D|-12-12-x-x-x-x-12--x-x-12--12-12-12-12\-----------2~|
A|----------------------------------------x-x---------|
E|----------------------------------------x-x-0h3p0---|

E|----------------------------------------------------|
B|----------------------------------------------------|
G|-------------2b4r2p0--------------------------------|
D|---------------------2--0--0h2p0-----2~~------------|
A|----------------------------------------------------|
E|-x-x-x-x-x-x---------------------3p0----------------|

[Terceiro Refrão] 

 E5  G5    D5
Feed    my eyes
  A5
(Can you sew them shut?)
 E5  G5        D5
Je______sus Christ
    A5
(Deny your maker)
 E5  G5       D5
He      who tries
  A5
(Will be wasted)
 E5  G5    D5
Feed    my eyes
  A5
(Now you've sewn them shut)

[Final] E5

E|-14-14---12-12-12-----------------------------------|
B|-14-14---12-12-12-----------------------------------|
G|-------x--------------------------------------------|
D|-------x--------------------------------------------|
A|----------------------------------------------------|
E|----------------------------------------------------|
Otros videos de esta canción
    364.540 exhibiciones
      • ½ Tono
      • Am
      • Bbm
      • Bm
      • Cm
      • C#m
      • Dm
      • Ebm
      • Em
      • Fm
      • F#m
      • Gm
      • G#m
    • Agregar a la lista

    Afinación de cifrado

    Afinador online

      Capítulos
      • Tocando a música
      • Dicas iniciais / Equipamentos
      • Afinação (1/2 tom abaixo)
      • Acordes da Introdução
      • Tocando Introdução
      • Introdução (Base)
      • Introdução (Solo)
      • Dicas Primeira Parte
      • Tocando Primeira Parte
      • Primeira Parte (Solo)
      • Dicas Refrão
      • Tocando Refrão
      • Ensinando Refrão
      • Dicas Repetição
      • Tocando Segunda Parte
      • Segunda Parte (Riff 4)
      • Dicas Segundo Refrão e Solos
      • Tocando Segundo Refrão - Solos
      • Solo 1 - Parte 1 de 4
      • Solo 1 - Parte 2 de 4
      • Solo 1 - Parte 3 de 4
      • Solo 1 - Parte 4 de 4
      • Solo 1 (Completo)
      • Solo 2 - Parte 1 de 4
      • Solo 2 - Parte 2 de 4
      • Solo 2 - Parte 3 de 4
      • Solo 2 - Parte 4 de 4
      • Solo 2 (Completo)
      • Dicas Terceiro Refrão
      • Tocando Terceiro Refrão - Final
      • Final
      • Emcerramento
      • Ficha técnica / Erros de gravação
      OK