Cifra Club

Nutshell Acoustic

Alice In Chains

Cifrado: Principal (guitarra y guitarra eléctrica)
Selo Cifra Club: esta cifra foi revisada para atender aos critérios oficiais da nossa Equipe de Qualidade.
tono: F# (con acordes en la forma de G) Afinación: Eb Ab Db Gb Bb Eb
[Intro] E  G  D  C9  Em7
        Em7  G  D  C9  Em7
        Em7  G  D  C9  Em7
        Em7  G  D  C9  Em7
        Em7  G  D  C9  Em7

[Primeira Parte]

Em7 G D  C9
           We
                  Em7 G D
Chase misprinted lies
 C9
We
                  Em7 G D
Face the path of time
C9
   And yet I fight

And yet I fight
                  Em7 G D
This battle all alone
 C9
No one to cry to
                  Em7
No place to call home

[Solo] Em7  G  D  C9  Em7
       Em7  G  D  C9  Em7

E|-12--------------------------------------------------------|
B|----12-----------------------------------------------------|
G|-------12-11b12r11--9----------------7-9-10-9~-------------|
D|----------------------9-10~-----9-10-----------------------|
A|-----------------------------------------------------------|
E|-----------------------------------------------------------|

E|-10--------------------------------------------------------|
B|----10-----------------------------------------------------|
G|-------7---------------------------------------------------|
D|---------7b8r7--5-4~---------------------------------------|
A|-----------------------------------------------------------|
E|-----------------------------------------------------------|

E|-12--------------------------------------------------------|
B|----12------------------------------------7-8-7h8p7--7-----|
G|-------12-11b12r11--9----------------7-9------------9--9~--|
D|----------------------9-10~-----9-10-----------------------|
A|-----------------------------------------------------------|
E|-----------------------------------------------------------|

E|-10--------------------------------------------------------|
B|----10-----------------------------------------------------|
G|-------7---------------------------------------------------|
D|---------7b8r7--5-4~---------------------------------------|
A|-----------------------------------------------------------|
E|-----------------------------------------------------------|

[Segunda Parte]

Em7 G D  C9
           My
                 Em7 G D
Gift of self is raped
 C9
My
            Em7 G D
Privacy is raked
C9
   And yet I find

Yet I find
                 Em7 G D
Repeating in my head
C9
   If I can't be my own
                 Em7
I'd feel better dead

[Solo] Em7  G  D  C9  Em7 (7x)

E|-12---------------------------------------------------------|
B|----12------------------------------------------------------|
G|-------12-11b12r11--9---------------------------------------|
D|----------------------9-10~---------------------------------|
A|------------------------------------------------------------|
E|------------------------------------------------------------|

E|-10---------------------------------------------------------|
B|----10------------------------------------------------------|
G|-------7----------------------------------------------------|
D|---------7b8r7--5-4~----------------------------------------|
A|------------------------------------------------------------|
E|------------------------------------------------------------|

E|-12---------------------------------------------------------|
B|----12------------------------------------------------------|
G|-------12-11b12r11--9---------------------------------------|
D|----------------------9-10~---------------------------------|
A|------------------------------------------------------------|
E|------------------------------------------------------------|

E|-10---------------------------------------------------------|
B|----10------------------------------------------------------|
G|-------7----------------------------------------------------|
D|---------7b8r7--5-4~----------------------------------------|
A|------------------------------------------------------------|
E|------------------------------------------------------------|

Parte 2
                          C9
E|------------------------0---0--0-0-0-0--0--0-0-0-0-0--0-0-0-|
B|-----------------5/7----3---3--3-3-3-0--0--0-3-3-0-0--0-0-3-|
G|-4b5r4------------------0---0--0-0-0-0--0--0-0-0-0-0--0-0-0-|
D|-------5-4b5r4----------2---2--2-2-2-2--2--2-2-2-2-2--2-2-2-|
A|---------------5--------3---3--3-3-3-3--3--3-3-3-3-3--3-3-3-|
E|------------------------------------------------------------|

E|------------------------------------------------------------|
B|------------------------------------------------------------|
G|------------------------------------------------------------|
D|---------5b6r5----------------------------------------------|
A|---5h7-----------7~-----------------------------------------|
E|-0-----0-------0--------------------------------------------|

                          C9
E|------------------------0---0--0-0-0-0--0--0-0-0-0-0--0-0-0-|
B|------------------------3---3--3-3-3-0--0--0-3-3-0-0--0-0-3-|
G|-4b5r4-----------5/7----0---0--0-0-0-0--0--0-0-0-0-0--0-0-0-|
D|-------5-4b5r4----------2---2--2-2-2-2--2--2-2-2-2-2--2-2-2-|
A|---------------5--------3---3--3-3-3-3--3--3-3-3-3-3--3-3-3-|
E|------------------------------------------------------------|

E|------------------------------------------------------------|
B|------------------------------------------------------------|
G|------------------------------------------------------------|
D|---------5b6r5----------------------------------------------|
A|---5h7-----------7~-----------------------------------------|
E|-0-----0-------0--------------------------------------------|

E|------------------------------------10----------------------|
B|----------------------8---8--10b12------b12r10--10b11r10--8-|
G|-------------7-9----9---9-----------------------------------|
D|-------5-7/9------------------------------------------------|
A|---5-7------------------------------------------------------|
E|------------------------------------------------------------|

E|------------------------------------------------------------|
B|-7--8--7----------------------------------------------------|
G|----------9--7--9--7---7--9--7------------------------------|
D|--------------------------------7--8--9--8--7---------------|
A|------------------------------------------------------------|
E|------------------------------------------------------------|

E|------------------------------------------------------------|
B|------------------------------------------------------------|
G|-----------------------------------7--9--9------------------|
D|-5---7--5--7--5------------5--7/9---------------------------|
A|-----------------7---5--7-----------------------------------|
E|------------------------------------------------------------|

E|----------------------------0-------------------------------|
B|----7--8--10--8--7-----7/8-------7--------------------------|
G|-9------------------9---------9-----9--7--7-----------------|
D|------------------------------------------------------------|
A|------------------------------------------------------------|
E|------------------------------------------------------------|

E|------------------------------------------------------------|
B|------------------------------------------------------------|
G|-9-7-7--7---------------------------------------------------|
D|----------9-9-9-7-9-7-5-7-5-7b9~----------------------------|
A|------------------------------------------------------------|
E|------------------------------------------------------------|
Otros videos de esta canción
    94.723 exhibiciones
      • ½ Tono
      • A
      • Bb
      • B
      • C
      • Db
      • D
      • Eb
      • E
      • F
      • F#
      • G
      • Ab
    • Agregar a la lista

    Afinación de cifrado

    Afinador online

      OK