Cifra Club

Rooster (Unplugged)

Alice In Chains

Cifrado: Principal (guitarra y guitarra eléctrica)
Selo Cifra Club: esta cifra foi revisada para atender aos critérios oficiais da nossa Equipe de Qualidade.
tono: Eb (con acordes en la forma de E) Afinación: Eb Ab Db Gb Bb Eb
Introdução: F#  F#11/E  A  A9/E - 4x

No finalzinho da segunda e quarta vez tem uma Harmônia!
E|-------
B|-------
G|-----------

dae entra a vocalização!

F#  F#11/E  A  A9/E - 4x
"uhuhuhuuuu..."

No finalzinho da segunda e quarta vez tem uma Harmônia!
E|-------
B|-------
G|-----------

Bem no finalzinho da intro. o violão faz um coisa assim:
E|-0h2---------
B|-----2~~~~~~-

Verso 1: F#  F#11/E  A  A9/E - 8x

Ain't found a way to kill me yet
Eyes burn with stinging sweat
Seems every path leads me to nowhere, Mmm
                               e|-------
                               B|-------
                               G|-----------
Wife and kids household pet
Army green was no safe bet
The bullets scream to me from somewhere, Mmm

Refrão:
 B                          D              F#/E  F#  B
Here they come to snuff the rooster, oh yeah
 B                  D
Yeah here come the rooster, yeah
F                            F#   A
  You know he ain't gonna die
E F#          A                          F#   A
No, no, no oh, you know he ain't gonna die

Solo:
E|----------------|---------------|--------------|----------------------------------|
B|----------------|---------------|--------------|-----------------5----------------|
G|----------------|---------------|--------------|-----------2--4b---4--2-4-2-4-2-2-|
D|----------------|---------------|----4--2--2~~-|-2---2--4-------------------------|
A|-2--1--2--2/4~~-|-4~--2~--2/4~~-|-1------------|----------------------------------|
E|----------------|---------------|--------------|----------------------------------|

E|----------------|---------------|--------------|-----------------------------|
B|----------------|---------------|--------------|-5--2------------------------|
G|----------------|---------------|--------------|------4-2-4p2-2---2~~--2b~~--|
D|----------------|---------------|----4--2--2~~-|-----------------------------|
A|-2--0--2--2/4~~-|-4~--2~--2/4~~-|-1------------|-----------------------------|
E|----------------|---------------|--------------|-----------------------------|

E|-----------------------------|---------------------------|
B|-----------------------------|---------------------------|
G|-----------------------------|------------------8~----8~-|
D|-----------------------------|---------------------------|
A|-2--1--2--2/4--4/9~~-7--9/11-|-9--7--7--9~~--6b----6b----|
E|-----------------------------|---------------------------|

Refrão:

Verso 2: F#  F#11/E  A  A9/E - 8x

Walkin' tall machine gun men
They spit on me in my home land
Gloria sent me pictures of my boy, Mmm
Got my pills 'gainst mosquito death
My buddy's breathing his dyin' breath
Oh god please won't you help me make it through

Refrão:

Final:(Com vocalização!)
F#  F#11/E  A  A9/E - 3x
F
Otros videos de esta canción
    58.286 exhibiciones
      • ½ Tono
      • A
      • Bb
      • B
      • C
      • Db
      • D
      • Eb
      • E
      • F
      • F#
      • G
      • Ab
    • Agregar a la lista

    Afinación de cifrado

    Afinador online

      OK