Cifra Club

Rooster

Alice In Chains

Cifrado: Principal (guitarra y guitarra eléctrica)
Selo Cifra Club: esta cifra foi revisada para atender aos critérios oficiais da nossa Equipe de Qualidade.
tono: Ab (con acordes en la forma de A) Afinación: Eb Ab Db Gb Bb Eb
Introdução: 
8x
     F#                  A   
E|---2-2-0---0-0-0-0--|--5-5-0---0-0-0-0-----| Na 5ª fez entra a vocalização!
B|---2-2-0---0-0-0-0--|--5-5-0---0-0-0-0-----| ´´uhuhuhuuuu...``
G|---3-3-3---3-3-3-3--|--6-6-6---6-6-6-6-----|
D|---4-4-4---4-4-4-4--|--7-7-7---7-7-7-7-----|
A|---4-4-4---4-4-4-4--|--7-7-7---7-7-7-7-----|
E|---2-2-2---2-2-2-2--|--5-5-5---5-5-5-5-----|

Verso 1:
Guitarra 1:8x
     F#                  A   
E|---2-2-0---0-0-0-0--|--5-5-0---0-0-0-0-----|
B|---2-2-0---0-0-0-0--|--5-5-0---0-0-0-0-----|
G|---3-3-3---3-3-3-3--|--6-6-6---6-6-6-6-----|
D|---4-4-4---4-4-4-4--|--7-7-7---7-7-7-7-----|
A|---4-4-4---4-4-4-4--|--7-7-7---7-7-7-7-----|
E|---2-2-2---2-2-2-2--|--5-5-5---5-5-5-5-----|

Guitarra 2:
E|--------|-----|-----|-----|-----|-----|-----|-----|-----|-----------|
B|--------|-----|-----|-----|-----|-----|-----|-----|-----|-----------|
G|-6/8\6^^| ~~~~~|~~~~~|~~~~~|~(6)~|~~~~~|~(6)~|~~~~~|~~~~~|~~~--------|
D|--------|-----|-----|-----|-----|-----|-----|-----|-----|-----------|
A|--------|-----|-----|-----|-----|-----|-----|-----|-----|---4--3--2-|
E|--------|-----|-----|-----|-----|-----|-----|-----|-----|-----------|

E|------------|--------|---------|--5~~~-------|--5------|---------|
B|------------|--------|----7~~~~|---------5-7-|----7----|--(7)~~~-|
G|------------|--------|---------|--2~~~-------|--2------|---------|
D|------4~~~~~|--------|--4------|---------2-4-|----4----|--(4)~~~-|
A|------------|--------|---------|-------------|---------|---------|
E|-5-2--------|---5~~~~|---------|-------------|---------|---------|

E|--------|----------|----------|-------|----------------------|
B|--------|----------|----------|-------|----------------------|
G|-6~~~~~~| ~~~~~~(6)~|~~~~~~(6)~|~~~~~~~|-6h8~~-8^p6~~~~~~~~~~~|
D|--------|----------|----------|-------|----------------------|
A|--------|----------|----------|-------|----------------------|
E|--------|----------|----------|-------|----------------------|
Ain't found a way to kill me yet
Eyes burn with stinging sweat
Seems every path leads me to nowhere, Mmm
Wife and kids household pet
Army green was no safe bet
The bullets scream to me from somewhere, Mmm

Refrão:
 B                           D              F#/E  F#  B
Here they come to snuff the rooster, oh yeah
 
 B                  D   
Yeah here come the rooster, yeah
   E5 F#5        A5                    F#5         A5 
E|-------0~~--|------------------|--------0~~---|-----5--(5)~~-----------|
B|-------0~~--|------------------|--------0~~---|-----5--(5)~~-----------|
G|-------3~~--|--2---------------|--------3~~---|--2--2--(2)~~-----------|
D|----4--4~~--|--2---------------|--2-----4~~---|--2--2--(2)~~-----------|
A|-2--4--4~~--|--0--4~~-3~~-2~~--|--0--4--4~~---|--0--0--(0)~~-----------|
E|-0--2--2~~--|------------------|-----2--2~~---|------------------------|
You know he ain't gonna die
   E5 F#5        A5                    F#5         A5 
E|-------0~~--|------------------|--------0~~---|-----5--(5)~~-----------|
B|-------0~~--|------------------|--------0~~---|-----5--(5)~~-----------|
G|-------3~~--|--2---------------|--------3~~---|--2--2--(2)~~-----------|
D|----4--4~~--|--2---------------|--2-----4~~---|--2--2--(2)~~-----------|
A|-2--4--4~~--|--0--4~~-3~~-2~~--|--0--4--4~~---|--0--0--(0)~~-----------|
E|-0--2--2~~--|------------------|-----2--2~~---|------------------------|
No, no, no oh, you know he ain't gonna die


Solo:
E|--2x---------------------------------------------|
E|----------------|---------------|----------------|--------------------------|
B|----------------|---------------|----------------|--------------------------|
G|-4--3--4--4/6~~-|--6--4--4/6~~--|--3-------------|--4--3--4--4/6--6--6/9~~--|
D|----------------|---------------|-----4--2--2~~--|--------------------------|
A|-2--1--2--2/4~~-|--4--2--2/4~~--|--1-------------|--2--1--2--2/6--4--4/7~~--|
E|----------------|---------------|-----2--0--0~~--|--------------------------|

E|------------------|-----------------|
B|------------------|-----------------|
G|-9--9/11--9--11~~-|--14--11--9~~~~--|
D|------------------|-----------------|
A|-7--7/9---7--9~~--|--12--9---7~~~~--|
E|------------------|-----------------|

Refrão:
 B5                          D5             F#5 B5
Here they come to snuff the rooster, oh yeah
 
 B5                 D5  
Yeah here come the rooster, yeah
   E5 F#5        A5                    F#5         A5 
E|-------0~~--|------------------|--------0~~---|-----5--(5)~~-----------|
B|-------0~~--|------------------|--------0~~---|-----5--(5)~~-----------|
G|-------3~~--|--2---------------|--------3~~---|--2--2--(2)~~-----------|
D|----4--4~~--|--2---------------|--2-----4~~---|--2--2--(2)~~-----------|
A|-2--4--4~~--|--0--4~~-3~~-2~~--|--0--4--4~~---|--0--0--(0)~~-----------|
E|-0--2--2~~--|------------------|-----2--2~~---|------------------------|
You know he ain't gonna die
   E5 F#5        A5                    F#5         A5 
E|-------0~~--|------------------|--------0~~---|-----5--(5)~~-----------|
B|-------0~~--|------------------|--------0~~---|-----5--(5)~~-----------|
G|-------3~~--|--2---------------|--------3~~---|--2--2--(2)~~-----------|
D|----4--4~~--|--2---------------|--2-----4~~---|--2--2--(2)~~-----------|
A|-2--4--4~~--|--0--4~~-3~~-2~~--|--0--4--4~~---|--0--0--(0)~~-----------|
E|-0--2--2~~--|------------------|-----2--2~~---|------------------------|
No, no, no oh, you know he ain't gonna die

Verso 2:
Guitarra 1:8x
     F#                  A   
E|---2-2-0---0-0-0-0--|--5-5-0---0-0-0-0-----|
B|---2-2-0---0-0-0-0--|--5-5-0---0-0-0-0-----|
G|---3-3-3---3-3-3-3--|--6-6-6---6-6-6-6-----|
D|---4-4-4---4-4-4-4--|--7-7-7---7-7-7-7-----|
A|---4-4-4---4-4-4-4--|--7-7-7---7-7-7-7-----|
E|---2-2-2---2-2-2-2--|--5-5-5---5-5-5-5-----|

Guitarra 2:
    F#5                                                     
E|----|-------|----|----------|------|--------|--14---------|-------------|
B|----|-------|----|--17--14--|--17--|--(17)--|--------17~~-|-14---14~~---|
G|----|-------|----|----------|------|--------|-----14------|-14----------|
D|--4-|--(4)--|----|----------|------|--------|-------------|----17-------|
A|--4-|--(4)--|----|----------|------|--------|-------------|-------------|
E|--2-|--(2)--|----|----------|------|--------|-------------|-------------|

E|------------|-------------------------|----------------------------|--------|
B|--14--------|-------------------------|----------------------------|---17~~-|
G|--14--------|-------14----------14----|-------14----16----14-16/18-|-18-----|
D|------16~~~-|-14-16----16-14-16----16-|-14-16----16----16----------|--------|
A|------------|-------------------------|----------------------------|--------|
E|------------|-------------------------|----------------------------|--------|
Walkin' tall machine gun men
They spit on me in my home land
Gloria sent me pictures of my boy, Mmm
Got my pills 'gainst mosquito death
My buddy's breathing his dyin' breath
Oh god please won't you help me make it through

Refrão:
 B5                          D5             F#5 B5
Here they come to snuff the rooster, oh yeah
 
 B5                 D5  
Yeah here come the rooster, yeah
   E5 F#5        A5                 A  F#5         A5 
E|-------0~~--|------------------|--------0~~---|-----5--(5)~~-----------|
B|-------0~~--|------------------|--------0~~---|-----5--(5)~~-----------|
G|-------3~~--|--2---------------|--------3~~---|--2--2--(2)~~-----------|
D|----4--4~~--|--2---------------|--2-----4~~---|--2--2--(2)~~-----------|
A|-2--4--4~~--|--0--4~~-3~~-2~~--|--0--4--4~~---|--0--0--(0)~~-----------|
E|-0--2--2~~--|------------------|-----2--2~~---|------------------------|
You know he ain't gonna die
   E5 F#5        A5                    F#5         A5 
E|-------0~~--|------------------|--------0~~---|-----5--(5)~~-----------|
B|-------0~~--|------------------|--------0~~---|-----5--(5)~~-----------|
G|-------3~~--|--2---------------|--------3~~---|--2--2--(2)~~-----------|
D|----4--4~~--|--2---------------|--2-----4~~---|--2--2--(2)~~-----------|
A|-2--4--4~~--|--0--4~~-3~~-2~~--|--0--4--4~~---|--0--0--(0)~~-----------|
E|-0--2--2~~--|------------------|-----2--2~~---|------------------------|
No, no, no oh, you know he ain't gonna die

Final:(Com vocalização!)
Guitarra 1:
E|--3x--------------------------------------|
     F#                  A                      F#
E|---2-2-0---0-0-0-0--|--5-5-0---0-0-0-0----|---2-2-0---0-0-0-0--0---|
B|---2-2-0---0-0-0-0--|--5-5-0---0-0-0-0----|---2-2-0---0-0-0-0--0---|
G|---3-3-3---3-3-3-3--|--6-6-6---6-6-6-6----|---3-3-3---3-3-3-3--3~~-|
D|---4-4-4---4-4-4-4--|--7-7-7---7-7-7-7----|---4-4-4---4-4-4-4--4~~-|
A|---4-4-4---4-4-4-4--|--7-7-7---7-7-7-7----|---4-4-4---4-4-4-4--4~~-|
E|---2-2-2---2-2-2-2--|--5-5-5---5-5-5-5----|---2-2-2---2-2-2-2--2~~-|

Guitarra 2: 
         B5   
E|--X--------|----|-16-17^-16^^-16--|-14------------------------------|----|-------|
B|----X------|----|-----------------|-----16^-(16)-16^-16^-16^-(16)^--|-14-|--(14)-|
G|------X----|----|-----------------|---------------------------------|----|-------|
D|--------4--|----|-----------------|---------------------------------|----|-------|
A|--------4--|----|-----------------|---------------------------------|----|-------|
E|--------2--|----|-----------------|---------------------------------|----|-------|
Otros videos de esta canción
    137.798 exhibiciones
      • ½ Tono
      • A
      • Bb
      • B
      • C
      • Db
      • D
      • Eb
      • E
      • F
      • F#
      • G
      • Ab
    • Agregar a la lista

    Afinación de cifrado

    Afinador online

      OK