Cifra Club

Rotten Apple

Alice In Chains

Cifrado: Principal (guitarra y guitarra eléctrica)
Selo Cifra Club: esta cifra foi revisada para atender aos critérios oficiais da nossa Equipe de Qualidade.
tono: Db (forma dos acordes no tom de D) Afinación: Eb Ab Db Gb Bb Eb
Afinação: Eb Ab Db Gb Bb Eb

[Tab - Intro]

E|-------------------------------------------------------|
B|-------------------------------------------------------|
G|-------------------------------------------------------|
D|--------4-0---2--------------4-0---2----4p0-------0h2--|
A|--0h2-2-----0-0--------0h2-2-----0-0--------0-2h4------|
E|-------------------------------------------------------|

E|-----------0-------------------------------------------|
B|---------0---------------------------------------------|
G|------16---------16------------------------------------|
D|---14---------14----0----------------------------------|
A|-------------------------------------------------------|
E|-------------------------------------------------------|

     Em7       D
E|---------3------------------3--------3p2---0h2------|
B|---------3---3--------------3---3--------3-----3----|
G|-------------2------------------2----------------2--|
D|--------2-----0------------2-----0------------------|
A|-----2------------------2---------------------------|
E|---0------------------0-----------------------------|

[Refrão]

D       Em7               G/C             Em7
     Yeeeeaaaaaaaaaaah, what i see is unreal

     G/C            Em7
I've written my own part

G/C                  Em7
Eat oy the apple so young

    G/c                   (Volta ao Riff inicial)
I'm crawling back to start

Hey ah na na
Innocence is over
Hey ah na na
Over

Hey ah na na
Ignorence is spoken
Hey ah na na
Spoken

Hey ah na na
Confidence is broken
Hey ah na na
Broken

Hey ah na na
Sustenance is stollen
Hey ah na na
Stolen

Hey ah na na
Arrogance is potent
Hey ah na na
Potent

Yeah.... what i see is unreal
I've written my my own part
Eat of the apple, so young
I'm crawling back to start

Hey ah na na
A romance is fallen
Hey ah na na
Fallen

Hey ah na na
I repent tomorrow
Hey ah na na
Tomorrow

Hey ah na na
I suspend my sorrow
Hey ah na na
Sorrow

(Chorus)

Hey ah na na
A romance is fallen
Hey ah na na
Fallen

Hey ah na na
Recommend you borrow
Hey ah na na
Borrow

(Chorus)
Otros videos de esta canción
    3.904 exhibiciones
      • ½ Tono
      • A
      • Bb
      • B
      • C
      • Db
      • D
      • Eb
      • E
      • F
      • F#
      • G
      • Ab
    • Agregar a la lista

    Afinação da cifra

    Afinador online

      Ops (: Contenido disponible solo en portugués.
      OK