Cifra Club

Them Bones

Alice In Chains

Cifrado: Principal (guitarra y guitarra eléctrica)
Selo Cifra Club: esta cifra foi revisada para atender aos critérios oficiais da nossa Equipe de Qualidade.
tono: B
Alice In Chains - Them Bones

Afinação: Db Ab Db Gb Bb eb

  Intro:

Eb|-------------------------------|  P.M.: Palm Mutting 
Bb|--10~--------------------------|
Gb|--10~--------------------------|
Db|--0---0-0-1-1-1-1-2-2-2-3-0-0--|
Ab|--0---0-0-1-1-1-1-2-2-2-3-0-0--|
Db|--0---0-0-1-1-1-1-2-2-2-3-0-0--|

  P.M.   . . . . . . . . . . . .

  Versos:

Eb|----------------|---------------|
Bb|--3-------------|-3-------------|
Gb|--3-------------|-2-------------|
Db|--0--0-1-2-3-0--|-0--0-1-2-3-0--|
Ab|-----0-1-2-3-0--|----0-1-2-3-0--|
Db|-----0-1-2-3-0--|----0-1-2-3-0--|(4x)

  Refrão:


Eb|----------------------------------------------------|    Obs: Essa é uma idéia de ritmo, não precisa ser igual,
Bb|------------------------10--------------------------|         você pode fazê-lo do jeito que achar melhor.
Gb|------------------------9---------------------------|
Db|--8-8-8-8-8-7-7-7--9/11----10-10-10-10-9-9-9-9-9-9--|
Ab|--8-8-8-8-8-7-7-7----------10-10-10-10-9-9-9-9-9-9--|
Db|--8-8-8-8-8-7-7-7----------10-10-10-10-9-9-9-9-9-9--|

     ↓ ↓ ↓ ↑ ↓ ↑ ↑ ↓          ↓  ↓  ↓  ↑  ↓ ↓ ↑ ↓ ↑ ↓

  Solo:

  Parte 1:   

Eb|------------------------------------------------------|
Bb|--------------------------------------------------6---|
Gb|--------------------------------------------------5---|
Db|------------------5-----6-----5-5-------------5/7-----|
Ab|--8-5-5-5-8-5-5-5---5-5---5-5-----8b--5/3-5-3---------|
Db|------------------------------------------------------|

P.M. . . . . . . . .   . .   . .                      

  Parte 2:

Eb|-----------------------------------------------------|
Bb|-----------------------------------------------------|
Gb|--12b14r12b14-12b14r12p10----------------------------|
Db|--------------------------12~--10h12p10--------------|
Ab|----------------------------------------12/10p8-10~--|
Db|-----------------------------------------------------|

  Parte 3:

Eb|-------------------------------------|
Bb|-------13-13-13--11-10-11-10---------|
Gb|--9--9-----------------------10------|
Db|--------------------------------12~--|
Ab|-------------------------------------|
Db|-------------------------------------|

  Parte 4:

Eb|--------------------------------|
Bb|---------------------10-11-10~--|
Gb|----------------9-10------------|
Db|----------10-12-----------------|
Ab|--8-10-12-----------------------|
Db|--------------------------------|
P.M. . .  .  

  Parte 5:

Eb|--------------------------------------------|
Bb|--10-11-13b15-13-11-13-11-10~---------------|
Gb|-------------------------------12-14-14b17--|
Db|--------------------------------------------|
Ab|--------------------------------------------|
Db|--------------------------------------------|  

  Parte 6:

Eb|--15b17r-15-13----13------------------|
Bb|---------------15----15-15b17r15-15~--|
Gb|--------------------------------------|
Db|--------------------------------------|
Ab|--------------------------------------|
Db|--------------------------------------|

  Parte 7:

Eb|--20b22r-20-18-17----17--------------------------|
Bb|------------------20----20b22r20-20-18---18------|
Gb|--------------------------------------19----19~--|
Db|-------------------------------------------------|
Ab|-------------------------------------------------|
Db|-------------------------------------------------|

  Parte 8:

Eb|----------------------------------------------------------|
Bb|----18h20p18---18h20p18---18h20p18---18h20p18---18h20p18--|
Gb|--19---------19---------19---------19---------19----------|
Db|----------------------------------------------------------|
Ab|----------------------------------------------------------|
Db|----------------------------------------------------------|


  Parte 9:

Eb|----------------------------------------------------|
Bb|----18h20p18---18h20p18---18-20b22-20-18----18------|
Gb|--19---------19---------19---------------19----19~--|
Db|----------------------------------------------------|
Ab|----------------------------------------------------|
Db|----------------------------------------------------|


  Parte 10:

Eb|--------------------------------------------|
Bb|--------------------------------------------|
Gb|--12b14-14-14-14r12-12b14r12p10---10-10-----|
Db|-------------------------------12-------12--|
Ab|--------------------------------------------|
Db|--------------------------------------------|

  Parte 11:

Eb|----------------------------|
Bb|----------------------------|
Gb|----------------------------|
Db|--10-12-12-12-12-10---------|
Ab|--------------------12-10/--|
Db|----------------------------|




  Letra:

  (Intro)
  Ah...

  (Versos)
  I believe them bones are me
  Some say we're born into the grave
  
  (Refrão)
  I feel so alone, gonna end up
  A big 'ole pile a them bones

  (Intro)
  Ah...

  (Versos)
  Dust rise right on over my time
  Empty fossil of the new scene
  
  (Refrão)
  I feel so alone, gonna end up
  A big 'ole pile a them bones

  (Solo)
  
  (Versos)
  Toll due bad dream come true
  I lie dead gone under red sky
  
  (Refrão)
  I feel so alone, gonna end up
  A big 'ole pile a them...
  I feel so alone, gonna end up
  A big 'ole pile a them...
  I feel so alone, gonna end up
  A big 'ole pile a them bones

------------Acordes--------------
D(versos): 0 0 0 X X X
D(refrão): 10 10 10 X X X
Eb: 1 1 1 X X X
E: 2 2 2 X X X
F: 3 3 3 X X X
B: 7 7 7 X X X
C: 8 8 8 X X X
Db: 9 9 9 X X X
Otros videos de esta canción
    71.203 exhibiciones
      • ½ Tono
      • A
      • Bb
      • B
      • C
      • Db
      • D
      • Eb
      • E
      • F
      • F#
      • G
      • Ab
    • Agregar a la lista

    Afinación de cifrado

    Afinador online

      OK