Cifra Club

Aprenda

Would?

Alice In Chains

Tablatura: Principal (guitarra)
tono: Ab (con acordes en la forma de A) Afinação: Eb Ab Db Gb Bb Eb
Guitarra Base
  H.N   .     .   .
E|-----------------------------------------------------|
B|-------------------5---------------------------------|
G|----------------------6------------------------------|
D|-----------------------------------------------------|
A|-----12--------12------------------------------------|
E|-12--------12----------------------------------------|

Guitarra Riff
E|-----------------------------------------------------|
B|-----------------------------------------------------|
G|-9~~-------------------------------------------------|
D|-----------------------------------------------------|
A|-----------------------------------------------------|
E|-----------------------------------------------------|


[Introdução] F#5  G

Guitarra Riff
E|-----------------------------------------------------|
B|-----------------------------------------------------|
G|-9/11~~--9b11--6~~-----------------------------------|
D|--------------------9-9b11~~---7h9-------------------|
A|-----------------------------------9~~---------------|
E|-----------------------------------------------------|

Guitarra Base
   F#5            G
E|------------------------------------------|
B|------------------------------------------|
G|-4h6---4h6---4--4-------------------------|
D|-4-----4-----4--5-------------------------|
A|------------------------------------------|
E|------------------------------------------|

   F#5            G
E|------------------------------------------|
B|-----------------------------5------------|
G|-4h6---4h6---4--4---------4---------------|
D|-4-----4-----4--5-----/5------------------|
A|------------------------------------------|
E|------------------------------------------|

   F#5            G
E|------------------------------------------|
B|------------------------------------------|
G|-4h6---4h6---4--4-------------------------|
D|-4-----4-----4--5-------------------------|
A|------------------------------------------|
E|------------------------------------------|

   F#5            G
E|------------------------------------------|
B|------------------------------------------|
G|-4h6---4h6---4--4-------------------------|
D|-4-----4-----4--5------------2------------|
A|--------------------------2---------------|
E|----------------------/3------------------|


[Primeira Parte]

   F#5            G
E|------------------------------------------|
B|------------------------------------------|
G|------------------------------------------|
D|------------------------------------------|
A|-2h4---2h4---2--2-------------------------|
E|-2-----2-----2--3-------------------------|

   F#5            G
E|------------------------------------------|
B|------------------------------------------|
G|------------------------------------------|
D|----------------------------2-------------|
A|-2h4---2h4---2--2--------2----------------|
E|-2-----2-----2--3----/3-------------------|

   F#5            G
E|------------------------------------------|
B|------------------------------------------|
G|------------------------------------------|
D|------------------------------------------|
A|-2h4---2h4---2--2-------------------------|
E|-2-----2-----2--3-------------------------|

     F#5            G
E|------------------------------------------|
B|------------------------------------------|
G|------------------------------------------|
D|------------------------------------------|
A|-2h4---2h4---2--2-------------------------|
E|-2-----2-----2--3-------------------------|

F#5       G
    Know me
        F#5   G     F#5
Broken by my master
        G
Teach thee on child
 F#5     G
Love hereafter


[Primeiro Refrão]

Guitarra Riff
E|---------------------------------------7-------------|
B|---------------------7---------------7---------------|
G|-6b7r6~~--4--6--6b7----b7r6~~--4--6------------------|
D|-----------------------------------------------------|
A|-----------------------------------------------------|
E|-----------------------------------------------------|

E|-----------------------------------------------------|
B|---------------------7-------------------------------|
G|-6b7r6~~--4--6--6b7----b7r6~~--2h4-------------------|
D|-----------------------------------4~----------------|
A|-----------------------------------------------------|
E|-----------------------------------------------------|

B5               G5
Into the flood again
                  B5        G5
Same old trip it was back then
 B5              G5
So I made a big mistake
              B5       G5
Try to see it once my way


[Interlúdio] F#5  G

   F#5            G
E|------------------------------------------|
B|------------------------------------------|
G|-4h6---4h6---4--4-------------------------|
D|-4-----4-----4--5-------------------------|
A|------------------------------------------|
E|------------------------------------------|

   F#5            G
E|------------------------------------------|
B|-----------------------------5------------|
G|-4h6---4h6---4--4---------4---------------|
D|-4-----4-----4--5-----/5------------------|
A|------------------------------------------|
E|------------------------------------------|

   F#5            G
E|------------------------------------------|
B|------------------------------------------|
G|-4h6---4h6---4--4-------------------------|
D|-4-----4-----4--5-------------------------|
A|------------------------------------------|
E|------------------------------------------|

   F#5            G
E|------------------------------------------|
B|------------------------------------------|
G|-4h6---4h6---4--4-------------------------|
D|-4-----4-----4--5------------2------------|
A|--------------------------2---------------|
E|----------------------/3------------------|


[Segunda Parte]

   F#5            G
E|------------------------------------------|
B|------------------------------------------|
G|------------------------------------------|
D|------------------------------------------|
A|-2h4---2h4---2--2-------------------------|
E|-2-----2-----2--3-------------------------|

   F#5            G
E|------------------------------------------|
B|------------------------------------------|
G|------------------------------------------|
D|----------------------------2-------------|
A|-2h4---2h4---2--2--------2----------------|
E|-2-----2-----2--3----/3-------------------|

   F#5            G
E|------------------------------------------|
B|------------------------------------------|
G|------------------------------------------|
D|------------------------------------------|
A|-2h4---2h4---2--2-------------------------|
E|-2-----2-----2--3-------------------------|

   F#5            G
E|------------------------------------------|
B|------------------------------------------|
G|------------------------------------------|
D|------------------------------------------|
A|-2h4---2h4---2--2-------------------------|
E|-2-----2-----2--3-------------------------|

F#5      G
    Drifting bodyits
 F#5       G   F#5
Sole desertion
   G
Flying, not yet
  F#5        G
Quite the notion


[Segundo Refrão]

Guitarra Riff
E|-----------------------------------------------------|
B|---------------------7-------------------------------|
G|-6b7r6~~--4--6--6b7----6b7r6~~-----------------------|
D|-----------------------------------------------------|
A|-----------------------------------------------------|
E|-----------------------------------------------------|

E|--------------------------7--------------------------|
B|------------------------7-7--------------------------|
G|-4--6b7r6~~--4--6--6b7-------------------------------|
D|-----------------------------------------------------|
A|-----------------------------------------------------|
E|-----------------------------------------------------|

B5               G5
Into the flood again
                  B5        G5
Same old trip it was back then
 B5              G5
So I made a big mistake
              B5       G5
Try to see it once my way


[Solo] F#5  E5  G5  E5

Guitarra Base
        P.M. . . . . . . .   .   . .
E|------------------------------------------|
B|------------------------------------------|
G|------------------------------------------|
D|------------------------------------------|
A|-0h4---4-4-4-2-2-2-2-2-5---5---x-x--------|
E|-0h2---2-2-2-0-0-0-0-0-3---3---x-x--------|

        P.M  . . .   . . .   . . . .
E|------------------------------------------|
B|------------------------------------------|
G|------------------------------------------|
D|------------------------------------------|
A|-------2---2-2-2---2-2-2---2-2-2-2--------|
E|-3b----0---0-0-0-3-0-0-0---0-0-0-0--------|

Guitarra Solo
E|-----------------------------------------------------|
B|--------------7~---------10--------------------------|
G|-6h7p6h7p...-------9b11------------------------------|
D|------------------------------9h11~-9h11p9~~---------|
A|-----------------------------------------------------|
E|-----------------------------------------------------|

E|-----------------------------------------------------|
B|-----------------------------------------------------|
G|-----------------------------------------------------|
D|-7-7b9r~---7h9---------------------------------------|
A|---------------9~~---7h9-----------------------------|
E|-------------------------9~~--7~~--------------------|


[Terceiro Refrão]

Guitarra Riff
E|-----------------------------------------------------|
B|---------------------7-------------------------------|
G|-6b7r6~~--4--6--6b7----6b7r6~~-----------------------|
D|-----------------------------------------------------|
A|-----------------------------------------------------|
E|-----------------------------------------------------|

E|-----------------------------------------------------|
B|------------------------7----------------------------|
G|-4--6b7r6~~--4--6--6b7----6b7r6~~--------------------|
D|-----------------------------------------------------|
A|-----------------------------------------------------|
E|-----------------------------------------------------|

B5               G5
Into the flood again
                  B5        G5
Same old trip it was back then
 B5              G5
So I made a big mistake
              B5       G5
Try to see it once my way


[Ponte]

Guitarra Base

   D5
              P.M. . .     . . . .
E|------------------------------------------|
B|------------------------------------------|
G|-7-------7---7-7-7-7-7---7-7-7-7----------|
D|-7-------7---7-7-7-7-7---7-7-7-7----------|
A|-5-------5---5-5-5-5-5---5-5-5-5----------|
E|-5-------5---5-5-5-5-5---5-5-5-5----------|
   ↓       ↓   ↓ ↑ ↓ ↑ ↓   ↓ ↑ ↓ ↑

   G#5
              P.M. . .     . . . .
E|------------------------------------------|
B|------------------------------------------|
G|------------------------------------------|
D|-6---6---6---6-6-6-6-6---6-6-6-6----------|
A|-6---6---6---6-6-6-6-6---6-6-6-6----------|
E|-4---4---4---4-4-4-4-4---4-4-4-4----------|
   ↓   ↓   ↓   ↓ ↑ ↓ ↑ ↓   ↓ ↑ ↓ ↑

   G5
              P.M. . .     . . . .
E|------------------------------------------|
B|------------------------------------------|
G|------------------------------------------|
D|-5---5---5---5-5-5-5-5---5-5-5-5----------|
A|-5---5---5---5-5-5-5-5---5-5-5-5----------|
E|-3---3---3---3-3-3-3-3---3-3-3-3----------|
   ↓   ↓   ↓   ↓ ↑ ↓ ↑ ↓   ↓ ↑ ↓ ↑

   E5
  P.M  .   . . . . . . . . . . . .
E|------------------------------------------|
B|------------------------------------------|
G|------------------------------------------|
D|-2---2------------------------------------|
A|-2---2---2-4-2-5-2-0-2-0-2-0-4-0----------|
E|-0---0------------------------------------|
   ↓   ↓   ↓ ↑ ↓ ↑ ↓ ↑ ↓ ↑ ↓ ↑ ↓ ↑

D5        G#5
   Am I wrong?
 G5             E5              D5
Have I run too far to get home?
        G#5
Have I gone?
 G5             E5
Left you here alone

D5        G#5
   Am I wrong?
 G5             E5              D5
Have I run too far to get home?
        G#5
Have I gone?
 G5             E5
Left you here alone


[Final]

D7(9+)
If I would, could you
Composição de J. Cantrell / Jerry Cantrell
Colaboración y revision:
  • Vinícius Dias
  • Léo Coli
  • Matheus Bueno
3.597 reproducciones
    • ½ Tono
    • A
    • Bb
    • B
    • C
    • Db
    • D
    • Eb
    • E
    • F
    • F#
    • G
    • Ab
  • Adicionar à lista

    0 comentarios

    Ver todos os comentários

    ¿Conseguiste tocar?

    14 Tocaram 0 Ainda não

    Grave um vídeo tocando Would? e nos envie!

    00:00 / 00:00
    outros vídeos desta música
    repetir qualidade Automático
    Outros vídeos desta música
    00:00 / 00:00
    Automático
    Capítulos
    • Tocando a música
    • Apresentação / Equipamentos
    • Afinação
    • Dicas introdução
    • Acordes introdução
    • Tocando introdução
    • Introdução - Guitarra base
    • Introdução - Guitarra solo
    • Dicas primeira parte
    • Acordes primeira parte
    • Tocando primeira parte
    • Ensinando primeira parte
    • Dicas primeiro refrão
    • Acordes refrão
    • Tocando primeiro refrão
    • Ensinando refrão 1 - Guitarra base
    • Ensinando refrão 1 - Guitarra solo
    • Dicas repetições e variação no refrão
    • Tocando repetições e refrão com variação
    • Ensinando refrão 2 - Guitarra solo
    • Dicas solo
    • Acordes solo
    • Tocando solo
    • Ensinando solo - Guitarra base
    • Ensinando solo - Guitarra solo
    • Dicas refrão 3 e ponte
    • Acordes ponte
    • Acorde final da música
    • Tocando refrão 3, ponte e final
    • Ensinando refrão 3 - Guitarra solo
    • Ensinando ponte
    • Ensinando ritmo final
    • Encerramento
    OK