Cifra Club

If I Ain't Got You

Alicia Keys

Cifrado: Principal (guitarra y guitarra eléctrica)
Selo Cifra Club: esta cifra foi revisada para atender aos critérios oficiais da nossa Equipe de Qualidade.
tono: G
[Intro] C7M  Bm7  Am7  G7M
        Am7  Bm7  C7M  Bm7
        Bbm7  Am7  C7M  Am7  G7M

[Tab - Intro]

Parte 1 de 7
   C7M
E|-12-------12--------12-------12-----------|
B|----12-------12--------12-------12--------|
G|-------12-------12--------12-------12-----|
D|-10---------------------------------------|
A|------------------------------------------|
E|------------------------------------------|

E|-12-------12------------------------------|
B|----12-------12---------------------------|
G|-------12-------12------------------------|
D|------------------------------------------|
A|------------------------------------------|
E|------------------------------------------|

Parte 2 de 7
   Bm7
E|-10-------10-------10-------10------------|
B|----10-------10-------10-------10---------|
G|-------11-------11-------11-------11------|
D|-9----------------------------------------|
A|------------------------------------------|
E|------------------------------------------|

E|-10-------10------------------------------|
B|----10-------10---------------------------|
G|-------11-------11------------------------|
D|------------------------------------------|
A|------------------------------------------|
E|------------------------------------------|

Parte 3 de 7
  Am7
E|-8-----8-----8-----8-----8-----8----------|
B|---8-----8-----8-----8-----8-----8--------|
G|-----9-----9-----9-----9-----9-----9------|
D|-7----------------------------------------|
A|------------------------------------------|
E|------------------------------------------|

Parte 4 de 7
   G7M                      Am7    Bm7
E|-7-----7-----7-----7-------8-----10-------|
B|---7-----7-----7-----7-------8------10----|
G|-----7-----7-----7-----7-------9-------11-|
D|-5-------------------------7-----9--------|
A|------------------------------------------|
E|------------------------------------------|

Parte 5 de 7
   C7M
E|-12-------12--------12-------12-----------|
B|----12-------12--------12-------12--------|
G|-------12-------12--------12-------12-----|
D|-10---------------------------------------|
A|------------------------------------------|
E|------------------------------------------|

E|-12-------12------------------------------|
B|----12-------12---------------------------|
G|-------12-------12------------------------|
D|------------------------------------------|
A|------------------------------------------|
E|------------------------------------------|

Parte 6 de 7
   Bm7
E|-10-------10-------10-------10------------|
B|----10-------10-------10-------10---------|
G|-------11-------11-------11-------11------|
D|-9----------------------------------------|
A|------------------------------------------|
E|------------------------------------------|

            Bbm7      Am7
E|-10-------9---------8-----8-----8---------|
B|----10-------9--------8-----8-----8-------|
G|-------11-------10------9-----9-----9-----|
D|----------8---------7---------------------|
A|------------------------------------------|
E|------------------------------------------|

Parte 7 de 7
                      G7M
E|-8-----8-----8------7---------------------|
B|---8-----8-----8----7---------------------|
G|-----9-----9-----9--7---------------------|
D|--------------------5---------------------|
A|------------------------------------------|
E|------------------------------------------|

[Primeira Parte]

Am7  G7M                   Em7
         Some people live for the fortune
Am7                                D7  Am7
    Some people live just for the fame
G7M                           Ab°
    Some people live for the power, yeah
Am7                                    D7
    Some people live just to play the game

[Pré-Refrão 1]

 G7M          Am7
Some people think 
             Bm7      Am7
That the physical things
   G7M   Am7      Bm7  C7M  Bm7  Am7
Define what's within
          G7M          Am7
And I've been there before
Bm7                Am7
And that life's a bore
 G7M            Am7     Bm7
So full of the superficial

[Refrão]

 G7M  Am7  Bm7  C7M
Some peo_ple   want it all
                  Bm7
But I don't want nothing at all
             Am7
If it ain't you baby
                G7M
If I ain't got you baby
      Am7          C7M
Some people want diamond rings
               Bm7
Some just want everything
                Bbm7  Am7
But everything means nothing
                G7M  Am7
If I ain't got you

[Segunda Parte]

G7M                     Em7
    Some people search for a fountain
Am7                   D7   Am7
    Promises forever young
G7M                               Ab°
    Some people need three dozen roses
Am7
    And that's the only way 
              D7
to prove you love them

[Pré-Refrão 2]

 G7M         Am7        Bm7        Am7
Hand me the world on a silver platter
      G7M      Am7      Bm7  C7M  Bm7
And what good would it be?
Am7  G7M        Am7   
    No one to share, 
 Bm7         Am7  G7M   Am7  Bm7
No one who truly cares for  me

[Refrão]

 G7M  Am7  Bm7  C7M
Some peo_ple   want it all
                  Bm7
But I don't want nothing at all
             Am7
If it ain't you baby
                G7M
If I ain't got you baby
      Am7          C7M
Some people want diamond rings
               Bm7
Some just want everything
                Bbm7  Am7
But everything means nothing
                G7M
If I ain't got you

      Am7  Bm7  C7M
Some peo_ple   want it all
                  Bm7
But I don't want nothing at all
             Am7
If it ain't you baby
                G7M
If I ain't got you baby
      Am7    Bm7   C7M
Some people want diamond rings
               Bm7
Some just want everything
                Bbm7  Am7
But everything means nothing
                G7M
If I ain't got you

[Tab - Final]

Parte 1 de 7
   C7M
E|-12-------12--------12-------12-----------|
B|----12-------12--------12-------12--------|
G|-------12-------12--------12-------12-----|
D|-10---------------------------------------|
A|------------------------------------------|
E|------------------------------------------|

E|-12-------12------------------------------|
B|----12-------12---------------------------|
G|-------12-------12------------------------|
D|------------------------------------------|
A|------------------------------------------|
E|------------------------------------------|

If I ain't got you with me, baby

Parte 2 de 7
   Bm7
E|-10-------10-------10-------10------------|
B|----10-------10-------10-------10---------|
G|-------11-------11-------11-------11------|
D|-9----------------------------------------|
A|------------------------------------------|
E|------------------------------------------|

E|-10-------10------------------------------|
B|----10-------10---------------------------|
G|-------11-------11------------------------|
D|------------------------------------------|
A|------------------------------------------|
E|------------------------------------------|

Parte 3 de 7
  Am7
E|-8-----8-----8-----8-----8-----8----------|
B|---8-----8-----8-----8-----8-----8--------|
G|-----9-----9-----9-----9-----9-----9------|
D|-7----------------------------------------|
A|------------------------------------------|
E|------------------------------------------|

Said nothing in this whole

Wide world don't mean a thing

Parte 4 de 7
   G7M                      Am7    Bm7
E|-7-----7-----7-----7-------8-----10-------|
B|---7-----7-----7-----7-------8------10----|
G|-----7-----7-----7-----7-------9-------11-|
D|-5-------------------------7-----9--------|
A|------------------------------------------|
E|------------------------------------------|

Parte 5 de 7
   C7M
E|-12-------12--------12-------12-----------|
B|----12-------12--------12-------12--------|
G|-------12-------12--------12-------12-----|
D|-10---------------------------------------|
A|------------------------------------------|
E|------------------------------------------|

E|-12-------12------------------------------|
B|----12-------12---------------------------|
G|-------12-------12------------------------|
D|------------------------------------------|
A|------------------------------------------|
E|------------------------------------------|

Parte 6 de 7
   Bm7
E|-10-------10-------10-------10------------|
B|----10-------10-------10-------10---------|
G|-------11-------11-------11-------11------|
D|-9----------------------------------------|
A|------------------------------------------|
E|------------------------------------------|

If I ain't got you with me, baby

            Bbm7      Am7
E|-10-------9---------8-----8-----8---------|
B|----10-------9--------8-----8-----8-------|
G|-------11-------10------9-----9-----9-----|
D|----------8---------7---------------------|
A|------------------------------------------|
E|------------------------------------------|

Parte 7 de 7
                      G7M
E|-8-----8-----8------7---------------------|
B|---8-----8-----8----7---------------------|
G|-----9-----9-----9--7---------------------|
D|--------------------5---------------------|
A|------------------------------------------|
E|------------------------------------------|
Otros videos de esta canción
    730.664 exhibiciones
    • Simplificar cifrado
      • ½ Tono
      • A
      • Bb
      • B
      • C
      • Db
      • D
      • Eb
      • E
      • F
      • F#
      • G
      • Ab
    • Agregar a la lista

    Afinación de cifrado

    Afinador online

      OK