Cifra Club

Aprenda

Attitude

Alien Ant Farm

Tablatura: Principal (guitarra)
tono: D
Intro:

e|-----------------------------------------------------------------
B|-----------------------------------------------------------------
G|--------------------------------------------------------------7--
D|-----------------------------------------------------------------
A|-----------------------------------------------------------------
E|-----------------------------------------------------------------

e|-----------------------------------------------------------------
B|-----------------------------------------------------------------
G|---7---------7-----7---------9-----9---------6-----6---------7--- (x4)
D|-9---7-9-9-7---9-9---7-9-9-7---9-9---7-9-9-7---9-9---7-9-9-7---9-
A|-----------------------------------------------------------------
E|-----------------------------------------------------------------

e|-----------------------------------------------------------------
B|-----------------------------------------------------------------
G|---7---------7-----7-------7-----7---------7-----7---------------
D|-9---7-9-9-7---9-9---7-9-9---9-9---7-9-9-7---9-7---9-7-----------
A|-----------------------------------------------------------------
E|-----------------------------------------------------------------

Versos:

e|-----------------------------------------
B|-----------------------------------------
G|-----------------------------------------
D|-----------------------------------------
A|----5-----5--------7------9------9-------
E|-7-----7-------7/9---/10-----10-----10\--

e|-----------------------------------------
B|-----------------------------------------
G|-----------------------------------------
D|-----------------------------------------
A|----4-----4--------------2-----2-------4-
E|-5-----5------5\------3-----3------3/5---

e|-----------------------------------------
B|-----------------------------------------
G|-----------------------------------------
D|-----------------------------------------
A|----5-----5--------9------9------9-------
E|-7-----7-------7/9---/10-----10-----10\--

e|-----------------------------------------
B|-----------------------------------------
G|-----------------------------------------
D|-------------------------5-----5-------9-
A|----4-----4-----------7-----7------7/9---
E|-5-----5-------5-------------------------

Pre Refrão:

e|-----------------------------------------------------------------
B|-----------------------------------------------------------------
G|----------------------------------0-------0----0-----------------
D|----5--5--------7--7-------------12------12---12-----------------
A|----5--5--------7--7-----9----9---9--9---------------------------
E|-7-------7/9-9-------9--10---10-----10------------10\------------

e|-----------------------------------------------------------------
B|-----------------------------------------------------------------
G|-----------------------------------------------------------------
D|-7----7--7---------7--7----5--5--5-------5-5-7-------------------
A|-7--7-7--9-------7-7--7----5--5--5-------5-5-7-------------------
E|-9--9------9--9---------9--7-------7--7------9--9/10-------------

e|-----------------------------------------------------------------
B|-----------------------------------------------------------------
G|----------------------------------0-------0----0-----------------
D|----5--5--------7--7-------------12------12---12-----------------
A|----5--5--------7--7-----9----9---9--9---------------------------
E|-7-------7/9-9-------9--10---10-----10------------10\------------

e|-----------------------------------------------------------------
B|---------------------------5---5--5-5---5------------------------
G|---------------------------5---5--5-5---5------------------------
D|-7----7--7---------7--7----5---5--5-5---5---5/7--7----7--7-------
A|-7--7-7--9-------7-7--7----7---7--7-7---7---7/9--9----9--9-------
E|-9--9------9--9---------9----------------------------------------

e|-----------------------------------------------------------------
B|-------------(7)-------------------------------------------------
G|-(7)---------------------(7)----------(5)------------------------
D|-------(7)---------------------(7)---------(5)-------------------
A|-----------------------------------------------------------------
E|-----------------------------------------------------------------

Refrão:

e|-----------------------------------------------------------------
B|-----------------------------------------------------------------
G|-----------------------------------------------------------------
D|--------------7--7-7-7-7--5--4----------------7--7-7-7-7--5--4---
A|-5---5-5---5---------------------5---5-5---5---------------------
E|-----------------------------------------------------------------

e|-----------------------------------------------------------------
B|-----------------------------------------------------------------
G|-----------------------------------------------------------------
D|--------------7--7-7-7-7--5--4----------------7--7-7-7-7--5--4---
A|-7---7-7---7-----------------------------------------------------
E|---------------------------------3---3-3---3---------------------

e|-----------------------------------------------------------------
B|-----------------------------------------------------------------
G|-----------------------------------------------------------------
D|--------------7--7-7-7-7--5--4----------------7--7-7-7-7--5--4---
A|-5---5-5---5---------------------5---5-5---5---------------------
E|-----------------------------------------------------------------

e|-----------------------------------------------------------------
B|-----------------------------------------------------------------
G|-----------------------------------------------------------------
D|--------------7--7-7-7-7--5--4-------------7--7--7-7-7-7--5--4---
A|-7---7-7---7---------------------5---5-5-------------------------
E|-----------------------------------------------------------------

Ponte:

e|-----------------------------------------------------------------
B|-----------------------------------------------------------------
G|---7---------7-----7---------9-----9---------6-----6---------7--- (x4)
D|-9---7-9-9-7---9-9---7-9-9-7---9-9---7-9-9-7---9-9---7-9-9-7---9-
A|-----------------------------------------------------------------
E|-----------------------------------------------------------------

e|-------------------------------------------
B|-------------------------------------------
G|----7-----------9-------9-----------11-----
D|-11---9-11-11-9---11-11---9-11-11-9----11--
A|-------------------------------------------
E|-------------------------------------------

e|-----------------------------------------------------
B|-----------------------------------------------------
G|----11-----------8---------8-------8-----------9-----
D|-11----9-11-11-9---11-11-9---11-11---9-11-11-9---11--
A|-----------------------------------------------------
E|-----------------------------------------------------

e|-------------------------------------------
B|-------------------------------------------
G|----9-----------8-------9-----------11-----
D|-11---9-11-11-9---11-11---9-11-11-9----11--
A|-------------------------------------------
E|-------------------------------------------

e|-------------------------------------------
B|-------------------------------------------
G|----11-----------8-------8-----------9-----
D|-11----9-11-11-9---11-11---9-11-11-9---11--
A|-------------------------------------------
E|-------------------------------------------

e|-----------------------------------------------------------------
B|-----------------------------------------------------------------
G|---9---------7-----7---------9-----9---------6-----6---------7---
D|-9---7-9-9-7---9-9---7-9-9-7---9-9---7-9-9-7---9-9---7-9-9-7---9-
A|-----------------------------------------------------------------
E|-----------------------------------------------------------------

e|-----------------------------------------------------------------
B|-----------------------------------------------------------------
G|---7---------7-----7---------9-----9---------6-----6---------7---
D|-9---7-9-9-7---9-9---7-9-9-7---9-9---7-9-9-7---9-9---7-9-9-7---9-
A|-----------------------------------------------------------------
E|-----------------------------------------------------------------

e|-----------------------------------------------------------------
B|-----------------------------------------------------------------
G|---7---------7-----7---------7-----7---------7-----7---------7---
D|-9---7-9-9-7---9-9---7-9-9-7---9-9---7-9-9-7---9-9---7-9-9-7---9-
A|-----------------------------------------------------------------
E|-----------------------------------------------------------------

e|-----------------------------------------------------------------
B|-----------------------------------------------------------------
G|---7---------7-----7---------7-----7---------7-------------------
D|-9---7-9-9-7---9-9---7-9-9-7---9-9---7-9-9-7---9-7---------------
A|-----------------------------------------------------------------
E|-----------------------------------------------------------------

Outro: Deixe tocar

e|-----------------------------------------------------------------
B|---------------------------------------------------------(7)-----
G|-7-----------------------------------------------(7)-------------
D|-9---------------------------------------------------(7)---------
A|-5---------------------------------------------------------------
E|-----------------------------------------------------------------
Composição de Dryden Mitchell / Mike Cosgrove / Terry Corso / Tye Zamora
52 reproducciones
    • ½ Tono
    • A
    • Bb
    • B
    • C
    • Db
    • D
    • Eb
    • E
    • F
    • F#
    • G
    • Ab
  • Adicionar à lista

    0 comentarios

    Ver todos os comentários

    ¿Conseguiste tocar?

    0 Tocaram 0 Ainda não

    Grave um vídeo tocando Attitude e nos envie!

    00:00 / 00:00
    outros vídeos desta música
    repetir qualidade Automático
    Outros vídeos desta música
    00:00 / 00:00
    Automático
    OK