Cifra Club

Aprenda

Courage

Alien Ant Farm

Tablatura: Principal (guitarra)
Tom: D
Album: ANThology
Transcribed by: Giles Harding
Email: *

Dropped D tuning


---------------------------------------------------------------------------------------
-(-Played 1st, 2nd, 4th bars-)-----(played 3rd bar only-)------------------------------
---------------------------------------------------------------------------------------
------^---^----------------------------------------------------------------------------
---4-4-0---0---0-4-5-4-4-2-4----¬--4-4-0---0---0-4-4-3-2-------------------------------
-4-------4---4---------4-2-4----¬--------4---4-----4-3-2-------------------------------
 
 Intro [played x 4]


---------------------------------------------------------------------------------------
---------------------------------------------------------------------------------------
---------------------------------------------------------------------------------------
---------------------------------------------------------------------------------------
-2-```````````-3-```````````---------------0-```````````-------------------------------
-----------------------------0-```````````-0-```````````-------------------------------

 Verse 1 (played with heavy vibrato on tremelo) [played x 2]   


---------------------------------------------------------------------------------------
---------------------------------------------------------------------------------------
---------------------------------------------------------------------------------------
------^---^----------------------------------------------------------------------------
---4-4-0---0---0-4-5-4-4-2-4-----------------------------------------------------------
-4-------4---4---------4-2-4-----------------------------------------------------------
   
 [Played x 4]                                                                


---------------------------------------------------------------------------------------
---------------------------------------------------------------------------------------
---------------------------------------------------------------------------------------
-4----6--7----0----9--7--6----4--7--0----2--3-¬-4--------------------------------------
-4----6--7----0----9--7--6----4--7--0----2--3-¬-4--------------------------------------
-4----6--7----0----9--7--6----4--7--0----2--3-¬-4--------------------------------------
 
"I never said you were a mistake at all, you got it all wrong, you misundersatnd me"        
[played x 4] (extra rhythm on bar notes last 2 times)


---------------------------------------------------------------------------------------
---------------------------------------------------------------------------------------
---------------------------------------------------------------------------------------
------^-----------------^-----------------------------------------^----------^---------
-4-4-4-0---0-4-4---4-4-4-0---0-4-4---6-6-0---0-6-6---7-7-7-0---9-11-11-11-9-11-11-11---
-4-4-----4---4-4---4-4-----4---4-4---6-----6---6-6---7-7-------9-11-11-11-9-11-11-11---
                                                         
Middle 8

Email me any comments/Suggestions, especially on the tricky intro. Hope this helps anyway
Compositor Dryden Mitchell / Mike Cosgrove / Terry Corso / Tye Zamora
21 reproducciones
    • ½ Tom
    • A
    • Bb
    • B
    • C
    • Db
    • D
    • Eb
    • E
    • F
    • F#
    • G
    • Ab
  • Adicionar à lista

    0 comentarios

    Mostrar mais comentários

    ¿Conseguiste tocar?

    0 Tocaron 0 Ainda não

    Grave um vídeo tocando Courage e mande pra gente!

    00:00 / 00:00
    outros vídeos desta música
    repetir qualidade Automático
    Outros vídeos desta música
    00:00 / 00:00
    Automático

    Cifra Club Pro

    Aproveite o Cifra Club com benefícios exclusivos e sem anúncios
    7 dias grátis
    Cifra Club Pro
    Aproveite o Cifra Club com benefícios exclusivos e sem anúncios
    7 dias grátis
    OK