Cifra Club

Crickets

Alien Ant Farm

Cifrado: Principal (guitarra y guitarra eléctrica)
Selo Cifra Club: esta cifra foi revisada para atender aos critérios oficiais da nossa Equipe de Qualidade.
tono: Em
intro :
E|-2--2--1--2---|
B|-3--3--3--3---|
G|-2--2--2--2---|
D|-0--0--0--0---|
A|-0--0--0--0---|
E|--------------|

and the "solo"...
E|-------------------------------10---9---------------------------------------------------------------------|
B|-----10---10--12b13r12------12---12---10--12--10-------10-----------10------------------------------------|
G|9/11----11----------------------------------------9/11---------9/11----11---9/11-v11----11/7-7-----7/9-9--|
D|----------------------------------------------------------------------------------------------------------|
A|----------------------------------------------------------------------------------------------------------|
E|----------------------------------------------------------------------------------------------------------|

I believe the chord progression for the verse is...
E|-2--2--1--2--------|
B|-3--3--3--3--------|
G|-2--4--1--2--------|
D|----4--3-----------|
A|----2--1-----------|
E|-------------------|

for the prechorus I do :
E|--------------------------------------------------------------------------------------------|
B|--------------------------------------------------------------------------------------------|
G|--6----7p6----------6--------6---7p6----9--8--8-8p6---------------------6-------------------|
D|7---7------7------7---7----7---7-----7-----------------6---7p6--------7---7-----6--7--6-----|
A|----------------9------------------------------------7---7-----7----9--------------------7--|
E|--------------------------------------------------------------------------------------------|

Then I strum this chord for the chorus

E|-0
B|-10
G|-11
D|-12
A|---|
E|---|

After the first chorus, the lick at the beginning of the song is repeated again.

Second lick:
E|-----------7---10-|
B|--7---10-----7----|
G|7--7-----7--------|
D|------------------|
A|------------------|
E|------------------|

third lick :
E|-----------------------------------10----12-----17----14---|
B|----7--10--7--------------------12----12----12-----12------|
G|7/9---------------------9p7--------------------------------|
D|-----------------------------------------------------------|
A|-----------------------------------------------------------|
E|-----------------------------------------------------------|
Otros videos de esta canción
    11 exhibiciones
      • ½ Tono
      • Am
      • Bbm
      • Bm
      • Cm
      • C#m
      • Dm
      • Ebm
      • Em
      • Fm
      • F#m
      • Gm
      • G#m
    • Agregar a la lista

    Afinación de cifrado

    Afinador online

      OK