Cifra Club

Aprenda

Hope

Alien Ant Farm

Tab de bajo: Principal
Intro:
G|--------|--------|--------|--------|--------|
D|--------|--------|--------|--------|--------|
A|--------|4-4-5-5-|0-00000-|0-00000-|--------|
E|2-2-2222|--------|--------|--------|2-------|

G|--------|--------|--------|--------|--------|
D|--------|--------|--------|--------|--------|
A|4-4-5-5-|0-0-0000|00000-0-|2-22-222|2-220-0-|
E|--------|--------|--------|--------|--------|

G|--------|---------|--------|--------|
D|--------|--/7-75--|--------|--------|
A|5-55-555|55-----7-|2-22-22-|2-22222-|
E|--------|---------|--------|--------|

G|--------|--------|--------|--------|
D|--------|--------|--------|--------|
A|0-00-000|0-00000-|--------|----0-0-|
E|--------|--------|3-33-33-|3-33----|
                    Refrão

G|--------|--------|--------|--------|
D|--------|--------|--------|--------|
A|5-55555-|55442200|--------|4-445-55|
E|--------|--------|2-2-2222|--------|

G|--------|--------|--------|--------|
D|--------|--------|--------|--------|
A|0-00000-|0-0000--|--------|4-445-55|
E|--------|------44|2-222222|--------|

G|--------|--------|
D|--------|--------|
A|0-00000-|00000-0-|
E|--------|--------|

G|--------|--------|--------|--------|--------|
D|--------|--------|--------|--------|--------|
A|--------|4-4-5-5-|0-00000-|0-00000-|--------|
E|2-2-2222|--------|--------|--------|2-------|

G|--------|--------|--------|--------|--------|
D|--------|--------|--------|--------|--------|
A|4-4-5-5-|0-0-0000|00000-0-|2-22-222|2-220-0-|
E|--------|--------|--------|--------|--------|

G|--------|---------|--------|--------|
D|--------|--/7-75--|--------|--------|
A|5-55-555|55-----7-|2-22-22-|2-22222-|
E|--------|---------|--------|--------|

G|--------|--------|--------|--------|
D|--------|--------|--------|--------|
A|0-00-000|0-00000-|--------|----0-0-|
E|--------|--------|3-33-33-|3-33----|
                    Refrão

G|--------|--------|--------|--------|
D|--------|--------|--------|--------|
A|5-55555-|55442200|--------|4-445-55|
E|--------|--------|2-2-2222|--------|

G|--------|--------|--------|--------|
D|--------|--------|--------|--------|
A|0-00000-|0-0000--|--------|4-445-55|
E|--------|------44|2-222222|--------|

G|--------|
D|--------|
A|00000000|
E|--------|

Ponte 1:
G|--------|--------|--------|
D|--------|--------|--------|
A|--------|--------|5-555555|
E|3-333333|33333333|--------|

G|--------|--------|--------|
D|--------|--------|--------|
A|55555555|2-222222|22222222|
E|--------|--------|--------|

G|--------|--------|--------|
D|--------|--------|--------|
A|0-000000|00000000|--------|
E|--------|--------|3-333333|

G|--------|---------|--------|
D|--------|---------|--------|
A|--------|4/555-555|55555555|
E|33333333|---------|--------|

G|--------|--------|--------|--------|
D|--------|--------|--------|--------|
A|0-000-00|0-000-00|----5-5-|0-00-000|
E|--------|--------|3-3-----|--------|

G|--------|--------|--------|--------|--------|
D|--------|--------|--------|--------|--------|
A|--------|4-4-5-5-|0-00000-|0-00000-|--------|
E|2-2-2222|--------|--------|--------|2-------|

G|--------|--------|--------|--------|--------|
D|--------|--------|--------|--------|--------|
A|4-4-5-5-|0-0-0000|00000-0-|2-22-222|2-220-0-|
E|--------|--------|--------|--------|--------|

G|--------|---------|--------|--------|
D|--------|--/7-75--|--------|--------|
A|5-55-555|55-----7-|2-22-22-|2-22222-|
E|--------|---------|--------|--------|

G|--------|--------|--------|--------|
D|--------|--------|--------|--------|
A|0-00-000|0-00000-|--------|----0-0-|
E|--------|--------|3-33-33-|3-33----|
                    Refrão

G|--------|--------|--------|--------|
D|--------|--------|--------|--------|
A|5-55555-|55442200|--------|4-445-55|
E|--------|--------|2-2-2222|--------|

G|--------|--------|--------|--------|
D|--------|--------|--------|--------|
A|0-00000-|0-0000--|--------|4-445-55|
E|--------|------44|2-222222|--------|

G|--------|
D|--------|
A|00000000|
E|--------|

Ponte 2:
G|--------|--------|--------|--------|
D|--------|--------|--------|--------|
A|4-44-444|4-44-444|7-77-777|7-77-777|
E|--------|--------|--------|--------|

G|--------|--------|--------|--------|
D|--------|--------|--------|--------|
A|--------|--------|55555555|55555555|
E|33333333|33333333|--------|--------|

G|--------|--------|--------|
D|--------|--------|--------|
A|4-44-444|4-44-444|0-00-000|   
E|--------|--------|--------|

G|--------|--------|
D|--------|--------|
A|--------|--------|
E|33333333|33333333|               

G|--------|--------|--------|--------|
D|--------|--------|--------|--------|
A|55555555|55442200|----4-4-|5-50-000|
E|--------|--------|2-22----|--------|

G|--------|--------|
D|--------|--------|
A|----4-4-|5-50----|
E|2-2-----|--------|
Compositor Alien Ant Farm
Colaboración y revision:
  • Jean Sapia
18 reproducciones

0 comentarios

Mostrar mais comentários

¿Conseguiste tocar?

0 Tocaron 0 Ainda não

Grave um vídeo tocando Hope e mande pra gente!

00:00 / 00:00
outros vídeos desta música
repetir qualidade Automático
Outros vídeos desta música
00:00 / 00:00
Automático
OK