Cifra Club

Aprenda

Stranded

Alien Ant Farm

Tablatura: Principal (guitarra)
Tom: B
Intro e Verso:
G|-----------------------------------------------------------------| 
D|-----------------------------------------------------------------| 
A|-4-4-4-4-4-4-4-4-2-1---------------------------------------------| 
E|---------------------2-4-4-4-4-4-----------------1-1-1-1-3-3-3-3-| 
B|---------------------------------4-4-4-4-4-4-4-4-----------------| 

G|-----------------| 
D|-----------------| 
A|-----------------| 
E|-1-1-x-x-3-3-x-x-| 
B|-----------------| 

Refrão 1: 
G|-----------------------------------------------------------------| 
D|-------------------------5-5-5-5-3-3-3-3-3-3-3-3-----3-----3-4---| 
A|-----------------3-3-3-3-------------------------4-4---4-4-----4-| 
E|-4-4-4-4-6-6-6-6-------------------------------------------------| 
B|-----------------------------------------------------------------| 

G|-----------------------------------------------------------------| 
D|-------------------------5-5-5-5---------------------------------| 
A|-----------------3-3-3-3---------3-3-3-3-3-3-3-3-4-4-4-4-4-4-6-6-| 
E|-4-4-4-4-6-6-6-6-------------------------------------------------| 
B|-----------------------------------------------------------------| 

Break:
G|------------------------------------------------------------------| 
D|---------------------------------5-5-5-5-5-5-5-5-6-6-6-6-8-8-8-8\-| 
A|-4-4-4-4-4-4-4-4-7-7-7-7-7-7-7-7----------------------------------| 
E|------------------------------------------------------------------| 
B|------------------------------------------------------------------| 

G|------------------------------------------| 
D|------------------------------------------| 
A|-4-44-4---3-33-3--------------------------| 
E|--------------------------1-1-1-1-3-3-3-3-| 
B|-------------------4-44-4-----------------| X2 

Refrão 2:
G|-----------------------------------------------------------------| 
D|-------------------------5-5-5-5-3-3-3-3-3-3-3-3-----3-----3-4---| 
A|-----------------3-3-3-3-------------------------4-4---4-4-----4-| 
E|-4-4-4-4-6-6-6-6-------------------------------------------------| 
B|-----------------------------------------------------------------| 

G|-----------------------------------------------------------------| 
D|-------------------------5-5-5-5---------------------------------| 
A|-----------------3-3-3-3---------3-3-3-3-3-3-3-3-4-4-4-4-4-4-6-6-| 
E|-4-4-4-4-6-6-6-6-------------------------------------------------| 
B|-----------------------------------------------------------------| 

Ponte:
G|------------------------------------------------| 
D|------------------------------------------------| 
A|------------------------------------------------| 
E|-------0---0-4\---------------------------------| 
B|-6\------0------0-0-0-0-0-0-0-0-0-0-0-0-0-0-0-0-| X2 

G|-------------------------------------------| 
D|-------------------------------------------| 
A|-3^-03^--------3^-03^----------------------| 
E|---------04-----------04---4-4-4-4-4-4-4-4-| 
B|-------------------------------------------| 

Outro:
G|-----------------| 
D|-----------------| 
A|-----------------| 
E|-4-4-4-4-4-4-4-4-| 
B|-----------------|
Compositor Dryden Mitchell / Mike Cosgrove / Terry Corso / Tye Zamora
Colaboración y revision:
  • Jean Sapia
24 reproducciones
    • ½ Tom
    • A
    • Bb
    • B
    • C
    • Db
    • D
    • Eb
    • E
    • F
    • F#
    • G
    • Ab
  • Adicionar à lista

    0 comentarios

    Mostrar mais comentários

    ¿Conseguiste tocar?

    0 Tocaron 0 Ainda não

    Grave um vídeo tocando Stranded e mande pra gente!

    00:00 / 00:00
    outros vídeos desta música
    repetir qualidade Automático
    Outros vídeos desta música
    00:00 / 00:00
    Automático

    Cifra Club Pro

    Aproveite o Cifra Club com benefícios exclusivos e sem anúncios
    7 dias grátis
    Cifra Club Pro
    Aproveite o Cifra Club com benefícios exclusivos e sem anúncios
    7 dias grátis
    OK