Cifra Club

Bem Aventurado

Aline Barros

Tablatura: Versão 5 (guitarra)
Já pensou em usar uma coleção de roupas do Cifra Club? Responda as perguntas abaixo e nos ajude nessa missão! →
tono: D
Solo 1 Guitarra
E|---------------------------------
B|---------------------------------
G|---------------------------------
D|----\9-9----7-7----5-5----7-7~---
A|---------------------------------
E|---------------------------------

E|---------------------------------
B|---------------------------------
G|---------------------------------
D|-----7-7----5-5----4-4-4----5~---
A|---------------------------------
E|---------------------------------

E|---------------------------------
B|---------------------------------
G|---------------------------------
D|----\9-9----7-7----5-5----7-7~---
A|---------------------------------
E|---------------------------------

E|---------------------------------
B|---------------------------------
G|---------------------------------
D|----\9------7------5----4---5~---
A|---------------------------------
E|---------------------------------
Repete 2 X
Composição de Aline Barros
Colaboración y revision:
  • Ednilson Araujo
83 reproducciones
    • ½ Tono
    • A
    • Bb
    • B
    • C
    • Db
    • D
    • Eb
    • E
    • F
    • F#
    • G
    • Ab
  • Adicionar à lista

    0 comentarios

    Ver todos os comentários
    00:00 / 00:00
    outros vídeos desta música
    repetir qualidade Automático
    Outros vídeos desta música
    00:00 / 00:00
    Automático
    OK