Enviar cifraEntrar

Deus do Impossível

Aline Barros

Acordes: Principal
reproducciones 280
Tono: C
 
Introdução em tablatura pra violão:

         Em             Em/D#


E|-2---3---5---7-|-5---------------------------------|
B|---------------|-----8---7---8----------------------|
G|---0---0---0---|---0---0---0----------------------|
D|---------------|--------------------------------------|
A|---------------|-6------------------------------------|
E|-0-------------|--------------------------------------|


        Em/D       A7      Am7


E|-0---3---0-----|---|-10-7---------------------------|
B|-------------3-|-2-|--------8-8-7--------------------|
G|---0---0---0---|-0-|------0-------------------------|
D|-0-------------|-2-|----------------------------------|
A|---------------|-0-|----0-----------------------------|
E|---------------|---|-----------------------------------|


     Bm7         Am7         F9    D4        D


E|-5-------|-----0-------8-|-3-|-3-2-3p-|2---------------|
B|-----3-3-|-1-------8-----|-1-|-3------|----------------|
G|---2-----|---0---0---0---|-2-|-2------|----------------|
D|---------|---------------|-3-|-0------|----------------|
A|-2-------|-0-------------|---|--------|----------------|
E|---------|---------------|---|--------|----------------|




      G9       D/G          C/G  D4  D
O meu Deus é o Deus do impossível
   G9        D/G          C/G B7/4 B/D#
Jeová Jirê o grande El Shaday
     Em            Em9/D#         Em/D
Que abriu o Mar Vermelho e ao seu povo
       A7/C#       C     G/B  Am7
Fez passar  que da rocha água limpa
Am7/G       F9  D4
     Fez brotar

      G9       D/G          C/G  D4  D
O meu Deus é o Deus do impossível
      G9           D/G          C/G
Que liberta encarcerados das prisões
B7/4 B/D#         Em           Em9/D#
         Faz da estéril mãe de filhos
           Em/D      A7/C#    C    Am7
Restaura a alma do ferido e dilata o
 D4          G9
Amor dos corações

Eb               Bb9         F9
Que dá vista aos cegos e aos surdos
      C  F/C C Eb          Bb9
Faz ouvir      faz a tempestade se
    C4  C   Eb              Bb9
Acalmar   andou por sobre o mar e
    F9          C  F/C C    Eb
Aos mudos fez falar     paralíticos
  Bb9         C4 C D4 D
E coxos fez andar

      G        D/G          C/G  D4  D
O meu Deus é o Deus do impossível
    G            D/G          C/G B7/4
É o mesmo hoje e sempre há de ser
B/D#      Em       Em9/D#        Em/D
    O meu Deus é o Deus  do impossível
A7/C#    C    Am7  C/D         Em
     E fará o impossível pra você
    C    G/B  Am7  D4
E fará o impossível  por você

              (Final)

         Em             Em/D#


E|-2---3---5---7-|-5---------------------------------------|
B|---------------|-----8---7---8----------------------------|
G|---0---0---0---|---0---0---0----------------------------|
D|---------------|-------------------------------------------|
A|---------------|-6-----------------------------------------|
E|-0-------------|-------------------------------------------|


        Em/D       A7      Am7


E|-0---3---0-----|---|-10-7------------------------------|
B|-------------3-|-2-|--------8-8-7-----------------------|
G|---0---0---0---|-0-|------0-----------------------------|
D|-0-------------|-2-|--------------------------------------|
A|---------------|-0-|----0---------------------------------|
E|---------------|---|---------------------------------------|


     Bm7         Am7         D   G9


E|-5-------|-----0-------8-|-10-|--------------------------|
B|-----3-3-|-1-------8-----|----|-0------------------------|
G|---2-----|---0---0---0---|----|-2------------------------|
D|---------|---------------|-0--|-0--------------------------|
A|-2-------|-0-------------|----|----------------------------|
E|---------|---------------|----|-3---------------------------|
  • 1
  • 2
  • 3
  • 4
  • 5
  • 6
  • 7
  • 8
  • 9
  • 10
  • 11
  • 12
    Acordes para:

      0 comentarios

        mostrar mas comentarios

        ¿Conseguiste tocar?

        11tocaron1aún no

        ¡Grave un vídeo tocando Deus do Impossível y envie para nosotros!

        00:00 / 00:00
        outros vídeos desta música
        repetirqualidadeautomática
        • automática
        Outro vídeos desta música
          00:00 / 00:00
          automática
          • automática
          Acordes para:guitarra
          dificuldadreproduccionescontribuciones
          1 versión de Partiturasformatodownloadscontribución
          cerrarplay/pause subir/bajar velocidad
            Acordes para:guitarra
            acordes
            cerrar
            OK