Cifra Club

Jeová Jireh

Aline Barros

Cifrado: Principal (guitarra y guitarra eléctrica)
Selo Cifra Club: esta cifra foi revisada para atender aos critérios oficiais da nossa Equipe de Qualidade.
tono: G
[Intro] C9  Am7  Em7  D9(11) 
        C9  Am7  Em7  D9(11) 

[Tab - Intro]

Parte 1 de 2
     C9           Am7             Em7  D9(11)
E|------------------------------------------|
B|---5-5-5-3-5~---5-5-5-3-5~----3-----------|
G|----------------------------5---4---------|
D|------------------------------------------|
A|------------------------------------------|
E|------------------------------------------|

Parte 2 de 2
     C9           Am7             Em7  D9(11)
E|------------------------------3-----------|
B|---5-5-5-3-5~---5-5-5-3-5~----------------|
G|----------------------------5---4---------|
D|------------------------------------------|
A|------------------------------------------|
E|------------------------------------------|

[Primeira Parte]

                G
O fogo não me queima

Nas águas não vou afundar
        C9
Pois estás comigo

Não estou sozinho

              G
Eu estou guardado

No esconderijo
       C9
Não estou sozinho

Tu estás comigo

[Refrão]

Temer por quê?
D9(11)             Em7
       Se eu estou     guardado
                Bm7
Por quem nunca perdeu batalhas
C9
   Seu nome é
D9(11) 
       Jeová Jireh
       G    
Irás prover de novo
     
Eu creio em Ti

 C9
Haja o que houver
 D9(11)
Venha o que vier
       G4       G 
Irás prover de novo
     G4      G 
Eu creio em Ti

        C9
Eu não vivo do que vejo
 D9(11)
Vivo do que creio
       G4       G 
Irás prover de novo
     G4      G 
Eu creio em Ti

[Primeira Parte]

                G
O fogo não me queima

Nas águas não vou afundar
        C9
Pois estás comigo

Não estou sozinho

              Em7
Eu estou guardado
      G
No esconderijo
       C9
Não estou sozinho
      Am7
Tu estás comigo

[Refrão]

[Tab - Solo]

Parte 1 de 2
E|------------------------------------------|
B|------------------------------------------|
G|------------------------------------------|
D|-2-2-2-2--2-2-2-2--2-2-2-2--4-4-4-4-------| (2x)
A|------------------------------------------|
E|------------------------------------------|
                                             
Parte 2 de 2 
E|------------------------------------------|
B|------------------------------------------|
G|-------------------5-5-5-5--4-4-4-4-------|
D|-5-5-5-5--5-5-5-5-------------------------|
A|------------------------------------------|
E|------------------------------------------|

C9
   Temer por quê?
D9(11)             Em7
       Se eu estou     guardado
                Bm7
Por quem nunca perdeu batalhas
C9
   Seu nome é
D9(11)
       Jeová Jireh
       G4       G
Irás prover de novo
     G4       G
Eu creio em Ti

 C9
Haja o que houver
 D9(11)
Venha o que vier
       G4       G
Irás prover de novo
     G4      G
Eu creio em Ti

        C9
Eu não vivo do que vejo
        D9(11)
Mas eu vivo do que creio
       G4       G
Irás prover de novo
     G4      G
Eu creio em Ti

( C9  D2  Em7  G )
( C9  D2  Em7  G )

[Tab - Passagem]

     G             G
E|---3--3--2-------3--3--2------------------|
B|---3--------3----3--------3---------------|
G|---0-------------0------------------------|
D|---0-------------0------------------------|
A|---2-------------2------------------------|
E|---3-------------3------------------------|

[Ponte]

C9
   A tempestade
D2
   E o Vento Forte
Em7                         Bm7
    Não vão roubar a minha fé

Em Ti meu Deus

C9
   A tempestade
D2
   E o Vento Forte
Em7                         Bm7
    Não vão roubar a minha fé

Em Ti meu Deus

C9
   A tempestade
D2
   E o Vento Forte
Em7                         Bm7
    Não vão roubar a minha fé

Em Ti meu Deus

C9
   A tempestade
D2
   E o Vento Forte
Em7                         Bm7
    Não vão roubar a minha fé
           C9
Em Ti meu Deus
           D2
Em Ti meu Deus
           Em7  Bm7
Em Ti meu Deus

[Refrão]

C9
   Temer por quê?
D9(11)             Em7
       Se eu estou     guardado
                Bm7
Por quem nunca perdeu batalhas
C9
   Seu nome é
D9(11)
       Jeová Jireh
       G
Irás prover de novo

Eu creio em Ti

 C9
Haja o que houver
 D9(11)
Venha o que vier
       G4       G
Irás prover de novo
     G4      G
Eu creio em Ti

        C9
Eu não vivo do que vejo
 D9(11)
Vivo do que creio
       G4       G
Irás prover de novo
     G4      G
Eu creio em Ti
C9              D9(11)
   Eu creio em Ti
         Em7
Irás prover de novo
         G               C9
Sim, eu sei, sim, eu sei
00:00 / 00:00
Otros videos de esta canción
Repetir
Otros videos de esta canción
2.300.526 exhibiciones
  • Simplificar cifrado
    • ½ Tono
    • A
    • Bb
    • B
    • C
    • Db
    • D
    • Eb
    • E
    • F
    • F#
    • G
    • Ab
  • Agregar a la lista

Afinación de cifrado

Afinador online

    00:00 / 00:00
    Capítulos
    • Apresentação
    • Tocando a Música
    • Acordes da Música
    • Tocando a Intro
    • Ensinando o Ritmo da Intro
    • Ensinando o Solo da Intro
    • Dicas da Primeira Parte
    • Acorde da Primeira Parte
    • Ensinando a Primeira Parte
    • Dicas do Primeiro Refrão
    • Acordes do Refrão
    • Ensinando o Primeiro Refrão
    • Ensinando a Passagem da Música
    • Dicas da Primeira Parte
    • Ensinando o Ritmo da Primeira Parte
    • Dicas do Segundo Refrão
    • Acorde do Segundo Refrão
    • Tocando o Solo e o Segundo Refrão
    • Ensinando o Segundo Refrão
    • Ensinando o Solo do Segundo Refrão
    • Dicas da Ponte da Música
    • Ensinando a Ponte da Música
    • Dicas do Refrão Final
    • Ensinando o Refrão Final
    • Encerramento
    OK