Cifra Club

Não Me Calarei

Aline Barros

Tablatura: Principal
reproducciones 139
Tono: F
Intro:
E|-------------------------------------------------------------|
B|---6------6-------10------10-------5-----5-------11-----11---|
G|-------------------------------------------------------------|
D|-------------------------------------------------------------|
A|---5------5-------8--------8-------3-----3-------10-----10---|
E|-------------------------------------------------------------|

Dm                     F
 Eu sei porque eu vivo
                        C
 Eu sei pra quem eu canto
                            Gm
 Ninguém jamais vai me enganar
Dm                         F
 Eu sei quem sou em Cristo
                      C
 Ouvi a voz do mestre
                       Gm
 Eu vou anunciar a salvação


 G  A#  C
           Eu não vou parar meus pés
 G  A#  C
           Eu não vou calar minha voz
 G  A#  C
           Continuo a cantar
G       A#   C
  Não me calarei

Refrão:
Dm
Subirei o monte
F
Descerei ao vale
  C                Gm
E o meu Deus me guiará
Dm                  F
Vou saltar muralhas e vencer gigantes
 C               Gm
Eu não quero mais parar
Dm               F
Mesmo no deserto eu não tenho medo
 C                    Gm
Pois eu sei a quem clamar

  A#   F   C
  Hei! Hei! Eu não vou parar meus pés
  A#   F   C
  Hei! Hei! Eu não vou calar minha voz
Solo Teclado:
            (2x)
E|--------------|--------------|
B|--------------|--------------|
G|--------------|--------------|
D|--3-3-3-3-3-3-|--3---3-3-3-6-|
A|--3-5-3-5-3-5-|--3h5-6-6-6-6-|
E|--3-3-3-3-3-3-|--3---3-3-3-3-|

Não vou parar meus pés
Não vou calar minha voz
Eu vou ouvir a voz do meu Senhor

( Dm  F   C  Gm )

Refrão:
Dm
Subirei o monte
F
Descerei ao vale
   C               Gm
E o meu Deus me guiará
Dm                  F
Vou saltar muralhas e vencer gigantes
 C                  Gm
Eu não quero mais parar
Dm               F
Mesmo no deserto eu não tenho medo
 C                    Gm
Pois eu sei a quem clamar
Acordes para:

    0 comentarios

      mostrar más comentarios

      ¿Conseguiste tocar?

      13tocaron0aún no

      ¡Graba un vídeo tocando Não Me Calarei y envianoslo!

      00:00 / 00:00
      outros vídeos desta música
      repetirqualidadeautomática
      Outro vídeos desta música
        00:00 / 00:00
        automática
        OK