Cifra Club

Sonda-me, Usa-me

Aline Barros

Tablatura: Principal (guitarra)
Tom: G
[Intro] C  G/B  F9  G  Em
        Am  Am7/G  F9  G/B  C4  C

   C           G/B         F9
E|-------------------------------3--------------------|
B|-------1-----------3---------1---1------------------|
G|-----0---0-------0---0-----2-------2----------------|
D|---2-------2---0-------0-3--------------------------|
A|-3-----------2--------------------------------------|
E|----------------------------------------------------|

   G           Em
E|----------------------------------------------------|
B|-------3-----------0--------------------------------|
G|-----0---0-------0---0------------------------------|
D|---0-------0---2-------2----------------------------|
A|----------------------------------------------------|
E|-3-----------0--------------------------------------|

   Am    Am7/G F9          G/B     C4 C  
E|-------------------3----------------0---------------|
B|-----------------1---1-----------1--1---------------|
G|-----2-----0---2-------------0---0--0---------------|
D|---2-----2---3-------------0-----3--2---------------|
A|-0-----------------------2-------3--3---------------|
E|-------3--------------------------------------------|

[Primeira Parte]

   C           G/B         Am
E|----------------------------------------------------|
B|-------1-----------3-----------1--------------------|
G|-----0---0-------0---0-------2---2------------------|
D|---2-------2---0-------0---2-------2----------------|
A|-3-----------2-----------0--------------------------|
E|----------------------------------------------------|
  
   Am7/G       F9          C/E
E|-------------------3-----------3--------------------|
B|-------1---------1---1-------1---1------------------|
G|-----0---0-----2-------2---0-------0----------------|
D|---2-------2-3-----------2--------------------------|
A|----------------------------------------------------|
E|-3--------------------------------------------------|

   Dm
E|-------1--------------------------------------------|
B|-----3---3-----3-1-0--------------------------------|
G|---2-----------------0---0--------------------------|
D|-0-----------0---------0----------------------------|
A|-------------------2--------------------------------|
E|----------------------------------------------------|

 C            G/B   Am      Am7/G
Sonda-me, Senhor e me conhece
  F9         C/E     Dm  
Quebranta o meu coração
      C           G/B     Am7      Am7/G  
Transforma-me conforme a Tua palavra

[Pré-Refrão]

   F9          G/F         Em7
E|-------3-----------3-----------3--------------------|
B|-----1---1-------3---3-------3---3------------------|
G|---2-------2---4-------4---0-------0----------------|
D|-3-----------3-----------2--------------------------|
A|----------------------------------------------------|
E|----------------------------------------------------|

   Am    Am7/G F9   
E|-------------------3-----------3--------------------|
B|-----------------1---1-------1---1------------------|
G|-----2-----0---2-------2---2-------2----------------|
D|---2-----2---3-----------3--------------------------|
A|-0--------------------------------------------------|
E|-------3--------------------------------------------|

   G
E|----------------------------------------------------|
B|-------3-----------3--------------------------------|
G|-----0---0-------0---0------------------------------|
D|---0-------0---0-------0----------------------------|
A|----------------------------------------------------|
E|-3-----------3--------------------------------------|

   F/A
E|----------------------------------------------------|
B|-------1-----------1--------------------------------|
G|-----2---2-------2---2------------------------------|
D|---3-------3---3-------3----------------------------|
A|-0-----------0--------------------------------------|
E|----------------------------------------------------|
  
   G/B
E|----------------------------------------------------|
B|----------------------------------------------------|
G|----------------------------------------------------|
D|---0------------------------------------------------|
A|-2--------------------------------------------------|
E|----------------------------------------------------|

  F9         G/F             Em7        Am  
E enche-me até que em mim se ache só a Ti
Am7/G  F9    G          F/A  
En____tão... usa-me Senhor
G/B
Usa-me

[Refrão]

           C                G/B
Como um farol que brilha à noite
      Am            Am7/G
Como ponte sobre as águas
      F9          C/E
Como abrigo no deserto
       F/A        G/B
Como flecha que acerta o alvo
    C          G/B       Am             Am7/G
Eu quero ser usado da maneira que te agrade
             F9             C/E
Em qualquer hora e em qualquer lugar
       F9         G        
Eis aqui a minha vida
     Am
Usa-me, Senhor
F      G
Usa-me

 C             Am             F
Sonda-me, quebranta-me, transforma-me     
Dm7        F9   G
Enche-me e usa-me

[Refrão]

           C                G/B
Como um farol que brilha à noite
      Am            Am7/G
Como ponte sobre as águas
      F9          C/E
Como abrigo no deserto
       F/A        G/B
Como flecha que acerta o alvo
    C          G/B       Am             Am7/G
Eu quero ser usado da maneira que te agrade
             F9             C/E
Em qualquer hora e em qualquer lugar
       F9         G        
Eis aqui a minha vida
     Am
Usa-me, Senhor
F      G
Usa-me

 C             Am             F
Sonda-me, quebranta-me, transforma-me     
Dm7        F9   G
Enche-me e usa-me
reproducciones 4.249

0 comentarios

mostrar más comentarios

¿Conseguiste tocar?

168 tocaron 31 aún no

¡Graba un vídeo tocando Sonda-me, Usa-me y envianoslo!

00:00 / 00:00
outros vídeos desta música
repetir qualidade Automático
Outros vídeos desta música
00:00 / 00:00
Automático
Capítulos
  • Início
  • Dicas e acordes da introdução
  • Tocando introdução
  • Ensinando dedilhado da introdução
  • Tocando dedilhado (tablatura)
  • Acordes da primeira parte
  • Tocando primeira parte
  • Ensinando dedilhado primeira parte
  • Acordes do pré-refrão
  • Tocando pré-refrão
  • Ensinando ritmo do pré-refrão
  • Acordes do refrão
  • Tocando refrão
  • Ensinando ritmo do refrão
  • Acordes e ritmo parte final
  • Tocando parte final
  • Tocando trecho da música
  • Encerramento
OK