Cifra Club

Steamer Trunk

Alkaline Trio

Tab de bajo: Principal
======================================================================
STEAMER TRUNK
FROM HERE TO INFIRMARY

Tabbed By: joel
E-mail: jhernandez2485@*

Tuning: Standard


I guess you could figure out timing and rhythm

Intro

G--------------------------------|
D------7/9-7---------------------|
A------------7-7--99999999--7777-|
E-5555---------------------------|


Verse
                     Add this on the 3rd time around
G--------------------|-------------------------------------|
D----7/9-7-----------|-----9999----9999----7777-6666-------|
A----------7-7--9--7-|-7777----7777----5555---------7777---|
E-5------------------|-----------------------------------5-|


Chorus

G----------------------------------------------------------|
D--------------------------------------9999----------------|
A--------555555-9999-11111111-12121212------777777---------|
E-555555---------------------------------------------------|


If anyone knows the bass solo or could give me a hand with any part of the  tab then 
by all means post it or e mail me

| /  slide up
| \  slide down
| h  hammer-on
| p  pull-off
| ~  vibrato
| +  harmonic
| x  Mute note
=======================================================================
00:00 / 00:00
Otros videos de esta canción
Repetir
Otros videos de esta canción
Composición de Alkaline Trio
18 exhibiciones
00:00 / 00:00
OK