Cifra Club

Wash Away

Alkaline Trio

Cifrado: Principal (guitarra y guitarra eléctrica)
tono: G
Intro:
E|-------------------------------------|      |------------------|
B|-------------------------------------|      |------------------|
G|1212121212121212---------------------|      |--1010101010101010|
D|1212121212121212-1212-1111-1212-1111-| (7x) |--1010101010101010|
A|-------------------------------------|      |--8-8-8-8-8-8-8-8-|
E|-------------------------------------|      |------------------|

Verso:
E|-----------------|
B|-----------------|
G|55555555---------|   (4x)
D|55555555-33333333|
A|33333333-33333333|
E|---------11111111|

Refrão:
E|-----------------------------------------|
B|-----------------------------------------|
G|--------------------------------5555-7777|   (2x)
D|77777777-88888888-77777777-8888-5555-7777|
A|77777777-88888888-77777777-8888-3333-5555|
E|55555555-66666666-55555555-6666----------|

Verso:
E|-----------------|
B|-----------------| 
G|55555555---------|   (4x)
D|55555555-33333333|
A|33333333-33333333|
E|---------11111111|

Refrão:
E|-----------------------------------------|
B|-----------------------------------------|
G|--------------------------------5555-7777|   (2x)
D|77777777-88888888-77777777-8888-5555-7777|
A|77777777-88888888-77777777-8888-3333-5555|
E|55555555-66666666-55555555-6666----------|

Pre-Solo:
E|-----------------|
B|-----------------|
G|---5---5---5---5-|
D|-2-5-2-5-2-5-2-5-|
A|-2-3-2-3-2-3-2-3-|
E|-0---0---0---0---|

Solo:
E|---------------------------------|
B|-7h8-8-8-8-8-8-8-8-7h8-8-8-8-8-8-|
G|---------------------------------|
D|---------------------------------|
A|---------------------------------|
E|---------------------------------|

E|-8-8-8-8p7-7-7-7p5-5-5-5-5--------------------------------|
B|---------------------------8-8-7--7-7-7-7h8-8-8-8-8-8-8-8-|
G|----------------------------------------------------------|
D|----------------------------------------------------------|
A|----------------------------------------------------------|
E|----------------------------------------------------------|

E|---------------------------------|
B|-7h8-8-8-8-8-8-8-8-7h8-8-8-8-8-8-|
G|---------------------------------|
D|---------------------------------|
A|---------------------------------|
E|---------------------------------|

E|8-8-8-8p7-7-7-7p5-5-5-5--------------------------------------------------------|
B|------------------------8-8-7--7-7-7-7/8-8-8-8/10-10-10-10/12-12-12-13-12-10-10|
G|-------------------------------------------------------------------------------|
D|-------------------------------------------------------------------------------|
A|-------------------------------------------------------------------------------|
E|-------------------------------------------------------------------------------|

Regrão:
E|-----------------------------------------|
B|-----------------------------------------|
G|--------------------------------5555-7777|   (2x)
D|77777777-88888888-77777777-8888-5555-7777|
A|77777777-88888888-77777777-8888-3333-5555|
E|55555555-66666666-55555555-6666----------|

Outro:
E|-------------------|      |-------|
B|-------------------|      |-------|
G|-55555555----------|      |-------|
D|-55555555-33333333-|      |---7---|
A|-33333333-33333333-|      |---7---|
E|----------11111111-| (2x) |---5---|
00:00 / 00:00
Otros videos de esta canción
Repetir
Otros videos de esta canción
Composición de T.S.O.L.
Colaboración y revisión:
  • Pedro Henrique
72 exhibiciones
    • ½ Tono
    • A
    • Bb
    • B
    • C
    • Db
    • D
    • Eb
    • E
    • F
    • F#
    • G
    • Ab
  • Agregar a la lista
    00:00 / 00:00
    OK