Cifra Club

Youre Dead

Alkaline Trio

Cifrado: Principal (guitarra y guitarra eléctrica)
Selo Cifra Club: esta cifra foi revisada para atender aos critérios oficiais da nossa Equipe de Qualidade.
tono: F#
Intro

E|-------------------------------------|
B|-------------------------------------|
g-11~1313131313131313131313-1111111111
d-x~-x-x-x-x-x-x-x-x-x-x-x-x-x-x-x-x-x
a|-9~11111111111111111111111-9--9--9--9|
e|-------------------------------------|

E|-------------------------------------|
B|-------------------------------------|
g-11~-1313131313131313131313----------
d-----x-x-x-x-x-x-x-x-x-x-x--99997777
a-9~-11111111111111111111111-99997777
e|----------------------------77775555| Rx2


Verse 1
"What the hell is your name?"

E|-------------------------------------|
B|-------------------------------------|
g11~-13------11---11-13---------------
D|-x~--x-------x----x--x-------99997777|
A|-9~-11-------9----9-11-------99997777|
E|-----------------------------77775555| Rx2

"Cuz if ....... could fly"
E|----------------------------------------------------|
B|----------------------------------------------------|
G|-11-131313131313--1111111111--131313131313----------|
D|-x--x-x-x-x-x-x-x--x-x-x-x-x--x-x-x-x-x-x-x-99997777|
A|-9--1111111111111-9--9--9--9--1111111111111-99997777|
E|--------------------------------------------77775555|

"Theres proof in the sky"
E|--------------------------------------------|
B|--------------------------------------------|
G|-11-1313131313131313131313------------------|
D|-x--x-x-x-x-x-x-x-x-x-x-x--7777777799999999|
a-9-11111111111111111111111-7777777799999999
e|---------------------------5555555577777777|

Chourus 1 with no words
E|------------------------------------------------------|
B|------------------------------------------------------|
G|-9--1111111--9----------9---1111111-9-----------------|
D|-x--x-x-x-x--x-7777777--x---x-x-x-x-x--99999999-------|
A|-7--9-9-9-9--7-xxxxxxx--7---9-9-9-9-7--99999999-------|
E|---------------55555555----------------77777777-------|

Verse 2
"I have something to say"
E|-------------------------------------|
B|-------------------------------------|
g11~-13------11---11-13---------------
D|-x~--x-------x----x--x-------99997777|
A|-9~-11-------9----9-11-------99997777|
E|-----------------------------77775555| Rx2

E|----------------------------------------------------|
B|----------------------------------------------------|
G|-11-131313131313--1111111111--131313131313----------|
D|-x--x-x-x-x-x-x-x--x-x-x-x-x--x-x-x-x-x-x-x-99997777|
A|-9--1111111111111-9--9--9--9--1111111111111-99997777|
E|--------------------------------------------77775555|

It all sounds well and fine
E|--------------------------------------------|
B|--------------------------------------------|
G|-11-1313131313131313131313------------------|
D|-x--x-x-x-x-x-x-x-x-x-x-x--7777777799999999|
a-9-11111111111111111111111-7777777799999999
e|---------------------------5555555577777777|

Chorus 2 with words

E|--------------------------------------------|
B|--------------------------------------------|
G|-9--1111111-9-----------9-1111111-9---------|
D|-x--x-x-x-x-x--99999999-x-x-x-x-x-x-77777777|
A|-7--9-9-9-9-7--99999999-7-9-9-9-9-7-xxxxxxxx|
E|---------------77777777-------------55555555|

E|-------------------------------------------|
B|--------------------------------------------|
G|-9--1111111-9-------------------------------|
D|-x--x-x-x-x-x| -999999997777777777777777-----
A|-7--9-9-9-9-7--99999999xxxxxxxxxxxxxxxx-----|
E|---------------777777775555555555555555-----|

Intro before the second verse

E|-------------------------------------|
B|-------------------------------------|
g-11~1313131313131313131313-1111111111
d-x~-x-x-x-x-x-x-x-x-x-x-x-x-x-x-x-x-x
a|-9~11111111111111111111111-9--9--9--9|
e|-------------------------------------|

E|-------------------------------------|
B|-------------------------------------|
g-11~-1313131313131313131313----------
d-----x-x-x-x-x-x-x-x-x-x-x--99997777
a-9~-11111111111111111111111-99997777
e|----------------------------77775555| Rx2

Chorus 3

E|--------------------------------------------|
B|--------------------------------------------|
G|-9--1111111-9-----------9-1111111-9---------|
D|-x--x-x-x-x-x--99999999-x-x-x-x-x-x-77777777|
A|-7--9-9-9-9-7--99999999-7-9-9-9-9-7-xxxxxxxx|
E|---------------77777777-------------55555555|

E|--------------------------------------------|
B|--------------------------------------------|
G|-9--1111111-9-------------------------------|
D|-x--x-x-x-x-x| -999999997777777777777777-----
A|-7--9-9-9-9-7--99999999xxxxxxxxxxxxxxxx-----|
E|---------------777777775555555555555555-----|

Middle Bit

"and all the times we shared talking about it"
E|-----------------------------------------------|
B|-----------------------------------------------|
G|-----------------------------------------------|
d11111111111111111111111111111119999999977777777
a11111111111111111111111111111119999999977777777
e9-9-9-9-9-9-9-9-9-9-9-9-9-9-9-97777777755555555

Chorus 4

E|--------------------------------------------|
B|--------------------------------------------|
G|-9--1111111-9-----------9-1111111-9---------|
D|-x--x-x-x-x-x--99999999-x-x-x-x-x-x-77777777|
A|-7--9-9-9-9-7--99999999-7-9-9-9-9-7-xxxxxxxx|
E|---------------77777777-------------55555555|

E|--------------------------------------------|
B|--------------------------------------------|
G|-9--1111111-9-------------------------------|
D|-x--x-x-x-x-x| -999999997777777777777777-----
A|-7--9-9-9-9-7--99999999xxxxxxxxxxxxxxxx-----|
E|---------------777777775555555555555555-----|
Otros videos de esta canción
    12 exhibiciones
      • ½ Tono
      • A
      • Bb
      • B
      • C
      • Db
      • D
      • Eb
      • E
      • F
      • F#
      • G
      • Ab
    • Agregar a la lista

    Afinação da cifra

    Afinador online

      Ops (: Contenido disponible solo en portugués.
      OK