Cifra Club

Aprenda

Bite Back

The All-American Rejects

Tablatura: Principal (guitarra)
tono: G
verse: Guitarra 1 (Palm Mute)
           8x          8x           16x
E|-----------------------------7777777777777---------|
A|------444444444---77777777---9999999999999---------|
D|------666666666---99999999-------------------------|
G|---------------------------------------------------|
B|---------------------------------------------------|
e|---------------------------------------------------|

"Oh no!"  (apenas no primeiro verso)
E|---------------------------------------------------|
A|---7-7---------------------------------------------|
D|---9-9---------------------------------------------|
G|---9-9---------------------------------------------|
B|---------------------------------------------------|
e|---------------------------------------------------|

Riff A:
"Then set yourself to disappoint"
Guitarra 2: (repetir até o final do verso)
E|----------------------------------------------------|
A|----------------------------------------------------|
D|----------------------------------------------------|
G|---9-9-8-9------------------------------------------|
B|----------------------------------------------------|
e|----------------------------------------------------|

Guitar 1: (Depois de "Then set yourself to disappoint")
E|--------------------------------------------------|
A|---5~---------------------------------------------|
D|---7~---------------------------------------------|
G|---7~---------------------------------------------|
B|--------------------------------------------------|
e|--------------------------------------------------|

Guitarra 1: Toque o verso denovo // Guitar 2: Continua no Riff A

Pre-Chorus: "I Live for things I love"
Guitarra 2:  1x
E|-------------------------------------------|
A|-------------------------------------------|
D|-------------------------------------------|
G|-------------------------------------------|
B|-0------0------0----------0----------------|
e|-0------0--------0-----0-------------------|

REFRÃO: Guitarra 1+2  "Take a little more than what I've got.."
E|-----------------777777----------------------------|
A|---444444-777777-999999-555555---------------------|
D|---666666-999999-999999-777777---------------------|    2x
G|---666666-999999--------777777---------------------|
B|---------------------------------------------------|
e|---------------------------------------------------|

Interlude 1:
      16x    16x
E|------------------------------------------|
A|-----4----7-------------------------------|
D|-----6----9-------------------------------|   2x
G|-----6----9-------------------------------|
B|------------------------------------------|
e|------------------------------------------|

Verse

Verse: Guitar 2: Riff B  "Yeah, you take but you take too much"
E|----------------------------------------------|
A|----------------------------------------------|
D|----------------------------------------------|
G|----------------------------------------------|    2x
B|---0-------0----------0--------------0--------|
e|-0-------0----------0-------------------0-----|

Pre-Chorus

Chorus 2x

Bridge:

"Move faster I can't move enough"
E|-------------------------------------------------|
A|-----------------5--------/4-44------------------|
D|-----------------7-16x----/6-66------------------|      2x
G|-4-4-4-4-4-4-4-4-7--------/6-66------------------|
B|-------------------------------------------------|
e|-------------------------------------------------|

Pequena Pausa: "We can't be" only Drums

Interlude 2:
      16x    16x
E|-----------7------------------------------|
A|-----5-----9------------------------------|
D|-----7-----9------------------------------|
G|-----7------------------------------------|
B|------------------------------------------|
e|------------------------------------------|

Solo (starts with g11^)

Pre-Chorus

Chorus 2x

Shorter Chorus 2x

Guitar 2: Riff C  "Take what I've got" (Shorter Chorus)
E|----12-12-11-12-------------------------|
A|----------------------------------------|
D|----------------------------------------|
G|----------------------------------------|
B|----------------------------------------|
e|----------------------------------------|

End on
e|--7~--|
A]--9~--|
D|--9~--|
G|------|
B|------|
e|------|
Colaboración y revision:
  • Erick Araújo
37 reproducciones
    • ½ Tono
    • A
    • Bb
    • B
    • C
    • Db
    • D
    • Eb
    • E
    • F
    • F#
    • G
    • Ab
  • Adicionar à lista

    0 comentarios

    Ver todos os comentários
    00:00 / 00:00
    outros vídeos desta música
    repetir qualidade Automático
    Outros vídeos desta música
    00:00 / 00:00
    Automático
    OK