Cifra Club

Dance Inside Intro

The All-American Rejects

Cifrado: Principal (guitarra y guitarra eléctrica)
tono: E
Tabbed by:jha


Tuning:standard

intro              x3
e|-----------------|---------------------------------------------------------|
B|--5--5-4h5-5-----|--5--5-4/2------5--5-4h5-5--------------------------------|
G|--------------4--|-----------4/1--------------4----------------------------|
D|-----------------|---------------------------------------------------------|
A|-----------------|---------------------------------------------------------|
E|-----------------|---------------------------------------------------------|

e|-------------------------------19-16---------------------------------------|
B|--5-5h7p5-4-5--5--5-4h5-5-----------14-------------------------------------|
G|---------------------------4-4---------------------------------------------|
D|---------------------------------------------------------------------------|
A|---------------------------------------------------------------------------|
E|---------------------------------------------------------------------------|

verse
e|---------------------------------------------------------------------------|
B|--5--4--5------------------------------------------------------------------|
G|-----------4~--------------------------------------------------------------|
D|------------------4--6--7-6--4---------------------------------------------|
A|---------------------------------------------------------------------------|
E|---------------------------------------------------------------------------|


| /  slide up
| \  slide down
| h  hammer-on
| p  pull-off
| ~  vibrato
| +  harmonic
| x  Mute note
===============================================================================
Compositor não encontrado.
39 vistas
    • ½ Tono
    • A
    • Bb
    • B
    • C
    • Db
    • D
    • Eb
    • E
    • F
    • F#
    • G
    • Ab
  • Agregar a la lista

    0 comentarios

    Ver todos los comentarios

    ¿Lograste tocar?

    0 Tocaron 0 Aún no

    ¡Graba un video tocando Dance Inside Intro y envíanoslo!

    00:00 / 00:00
    Outros vídeos desta música
    Repetir Calidad Automático
    Outros vídeos desta música
    00:00 / 00:00
    Automático
    OK