Cifra Club

Aprenda

Dance Inside Solo

The All-American Rejects

Tablatura: Principal (guitarra)
tono: E
=================================================
=================================================

Tabbed by: ccs127
Email: *

Tuning: Standard

Not all that bad of a solo, sounds correct to me.  Comments always welcome.  Enjoy.

e|----------------------------2h4h5-4-0---2*-4\0-0-----0-----0-------|
B|-------------------------------------------------2-4---0-4---0-----|
G|----1-----1-----1-2-1-1h2h4-----------4------------------------1-2-|
D|2-4---2-4---2-4----------------------------------------------------|
A|-------------------------------------------------------------------|
E|-------------------------------------------------------------------|

e|--5-4-2-4-5-7-9-11-12-12h14h16b-14-16\12-12-11----12-11-12-14-11-12-14-16-14-16-17|
B|-----------------------------------------------12---------------------------------|
G|----------------------------------------------------------------------------------|
D|----------------------------------------------------------------------------------|
A|----------------------------------------------------------------------------------|
E|----------------------------------------------------------------------------------|

| /  slide up
| \  slide down
| h  hammer-on
| p  pull-off
| ~  vibrato
| +  harmonic
| x  Mute note
34 reproducciones
    • ½ Tono
    • A
    • Bb
    • B
    • C
    • Db
    • D
    • Eb
    • E
    • F
    • F#
    • G
    • Ab
  • Adicionar à lista

    0 comentarios

    Ver todos os comentários

    ¿Conseguiste tocar?

    0 Tocaram 0 Ainda não

    Grave um vídeo tocando Dance Inside Solo e nos envie!

    00:00 / 00:00
    outros vídeos desta música
    repetir qualidade Automático
    Outros vídeos desta música
    00:00 / 00:00
    Automático
    OK