Cifra Club

Dirty Litlle Secret

The All-American Rejects

Cifrado: Principal (guitarra y guitarra eléctrica)
tono: Bb
guitar 1

Intro:
E|-------------------------------------|
B|-------------------------------------|
G|-------------------------------------|
D|-----8----8--6-6p56p5----x4-6p56p5---|
A|-----------------------6-----------6-|
E|--6-----6----------------------------|

  Verse 1: 
E|----------------------|
B|----------------------|
G|----------------------|
D|----10---5---8--------|
A|8x8-8-x8-5x8-6x8------|
E|6---------------------|

pre chorus:
E|------------------------------|
B|------------------------------|
G|-5---------8---10-------------|
D|-5x6--5----8x6-10x6-----------|
A|-3----5x6--6---8--------------|
E|------3-----------------------|

chorus:
E|----------------------------|
B|----------------------------|
G|----8----------8------------|
D|-8--8--5--3-x2-8(hold)------|       
A|-8--6--5--3----6------------|
E|-6-----3--1-----------------|

Verse 2: i go around a time or to...
E|----------------------------|
B|----------------------------|
G|----8-----------------------|
D|-8--8--5--3-----------------|       
A|-8--6--5--3-----------------|
E|-6-----3--1-----------------|
pm *  *  *  *
  
Repeat pre chorus
Repeat Chorus

  Bride: x2
E|-------|
B|-------|
G|----8--|
D|-5--8--|
A|-5--6--|
E|-3-----|

during solo:
E|--------|
B|--------|
G|--------|
D|-8--6---|
A|-8--6---|
E|-6--4---|

build up:
E|----------------------------------|
B|----------------------------------|
G|----------888888------------------|
D|-8888888--888888--5555555--333333-|       
A|-8888888--666666--5555555--333333-|
E|-6666666----------3333333--111111-|
pm *******  ******  *******  ******

chorus

pre outro
e|----------------------------------------------------------------|
B|----------------------------------------------------------------|
G|--88888888/10-10-10-10-10-10-10-10/12-12-12-12-12-12-12-12--13~-|
D|--xxxxxxxxxxxxxxxxxxxxxxxxxxxxxxxxxxxxxxxxxxxxxxxxxxxxxxxx--x~--|
A|--66666666/-8--8--8--8--8--8--8--8/10-10-10-10-10-10-10-10--11~-|
E|----------------------------------------------------------------|

outro
E|--------------------------|
B|--------------------------|
G|--------------------------|
D|-----8----8--6-6p5h6p5----|
A|-----------------------8v-|
E|--6-----6-----------------|

guitar 2
intro
E|------------------------------|
B|--11-11-9-9p89p8------9p89p8--|
G|-----------------8----------8-|
D|-8--8--------------x3---------|
A|------------------------------|
E|------------------------------|

  Verse 1: 
E|----------------------|
B|----------------------|
G|----------------------|
D|----10---5---8--------|
A|8x8-8-x8-5x8-6x8------|
E|6---------------------|

pre chorus:
E|------------------------------|
B|-4----------------------------|
G|-5---------8---10-------------|
D|-5x6--5----8x6-10x6-----------|
A|-3----5x6--6---8--------------|
E|------3-----------------------|

chorus:
E|----------------------------|
B|----------------------------|
G|----8----------8------------|
D|-8--8--5--3-x2-8(hold)------|       
A|-8--6--5--3----6------------|
E|-6-----3--1-----------------|

Verse 2:
E|-----------------------------------------------|
B|-11----10----11----16----11----10----11----8---|
G|-10-x8-10-x8-10-x8-15-x8-10-x8-10-x8-10-x8-8-x8|
D|-----------------------------------------------|       
A|-----------------------------------------------|
E|-----------------------------------------------|

pre chorus
chorus
bridge

solo:
E|------------------------------------------------13--13-11-11p1011p10-------13-13-11-11p1011p10-----|
B|---11--11-9-9p89p8----11--11-9-9p8--------13b-11--11----------------11v--11-11----------------11\\--|
G|------------------8----------------10h12-----------------------------------------------------------|
D|-8---8--------------8---8--------------------------------------------------------------------------|       
A|---------------------------------------------------------------------------------------------------|
E|---------------------------------------------------------------------------------------------------|

e|----------------------|
B|----------------------|
G|----------------------|
D|-------8----5----10---|x2  
A|--8-x8-6-x8-5-x8-8-x8-|
E|--6-------------------|

fill
e|--6-5-----6-5-----|
B|------6~------6~--|
G|------------------|
D|------------------|
A|------------------|
E|------------------|

chorus

pre outro
e|----------------------------------------------------------------|
B|----------------------------------------------------------------|
G|--88888888/10-10-10-10-10-10-10-10/12-12-12-12-12-12-12-12--13~-|
D|--xxxxxxxxxxxxxxxxxxxxxxxxxxxxxxxxxxxxxxxxxxxxxxxxxxxxxxxx--x~--|
A|--66666666/-8--8--8--8--8--8--8--8/10-10-10-10-10-10-10-10--11~-|
E|----------------------------------------------------------------|

outro
E|---------------------------------------|
B|--11-11-9-9p89p8----11-11-9-9p89p8-----|
G|-----------------8-----------------10v-|
D|-8--8--------------8--8----------------|
A|---------------------------------------|
E|---------------------------------------|
Compositor não encontrado.
Colaboración y revisión:
  • Antonio Filho
411 vistas
    • ½ Tono
    • A
    • Bb
    • B
    • C
    • Db
    • D
    • Eb
    • E
    • F
    • F#
    • G
    • Ab
  • Agregar a la lista

    0 comentarios

    Ver todos los comentarios

    ¿Lograste tocar?

    4 Tocaron 0 Aún no

    ¡Graba un video tocando Dirty Litlle Secret y envíanoslo!

    00:00 / 00:00
    Outros vídeos desta música
    Repetir Calidad Automático
    Outros vídeos desta música
    00:00 / 00:00
    Automático
    OK