Cifra Club

Aprenda

Fembot

The All-American Rejects

Tablatura: Principal (guitarra)
tono: A
Tuning: STANDARD

Intro/Verse/Outro
e|---------------------------|
B|---------------------------|
G|------11-9-9-------7--9-9--|
D|-7-7--11-9-9--9-9--7--9-9--|
A|-7-7--9--7-7--9-9--5--7-7--|
E|-5-5----------7-7----------|

Intro/Outro Lead
e|---------------------------------------------------------------|
B|---------------------------------------------------------------|
G|-----6---9---7-6-----6---9---7-6-----6---9---7-6-7-7-6-6-----6-|
D|-7-7---7---7-----7-7---7---7-----7-7---7---7-------------9-9---|
A|---------------------------------------------------------------|
E|---------------------------------------------------------------|
p.m...............................................

Second Part of Intro/Post Chorus
e|-------------------------------------------------|
B|-------------------------------------------------|
G|-------------9-9-9-9-9-9-------------7-7-7-7-7-7-|
D|-7-7-7-7-7-7-9-9-9-9-9-9-9-9-9-9-9-9-7-7-7-7-7-7-|
A|-7-7-7-7-7-7-7-7-7-7-7-7-9-9-9-9-9-9-5-5-5-5-5-5-|
E|-5-5-5-5-5-5-------------7-7-7-7-7-7-------------|

Pre-Chorus
e|----------------------------------------------------------------|
B|----------------------------------------------------------------|
G|-----------------9-9-9-9-9-9-9-9-------------9-9-7-7-7-7-7-7-7-7|
D|-7-7-7-7-7-7-7-7-9-9-9-9-9-9-9-9-9-9-9-9-9-9-9-9-7-7-7-7-7-7-7-7|
A|-7-7-7-7-7-7-7-7-7-7-7-7-7-7-7-7-9-9-9-9-9-9-9-9-5-5-5-5-5-5-5-5|
E|-5-5-5-5-5-5-5-5-----------------7-7-7-7-7-7-7-7----------------|
     p.m........     ...........     ...........     ...........

Chorus
e|-------------------------------------------------|
B|-------------------------------------------------|
G|-------------9-9-9-9-9-9-------------7-7-7-7-7-7-|
D|-7-7-7-7-7-7-9-9-9-9-9-9-4-4-4-4-4-4-7-7-7-7-7-7-|
A|-7-7-7-7-7-7-7-7-7-7-7-7-4-4-4-4-4-4-5-5-5-5-5-5-|
E|-5-5-5-5-5-5-------------2-2-2-2-2-2-------------|

Bridge
e|-----------------------------|
B|-----------------------------|
G|---------------4-4----7-7----|
D|-7-7----4-4----4-4----7-7----|
A|-7-7----4-4----2-2----5-5----|
E|-5-5----2-2------------------|

Bridge Lead
e|-----------------------------------------------|
B|-----------------------------------------------|
G|-----------------------------------------------|
D|-----------------------------------------------|
A|----4-5-4----4-5-4----4-5-4-7-7-5-5-4-4-5-5----|
E|-----------------------------------------------|

Lead in the last Chorus
e|---------------------------------------------------------------------|
B|---------------------------------------------------------------------|
G|-----6-6-9-9-6-6-----6-6-9-9-6-6-----6-6-9-9-6-6-7-7-6-6-7-7-----6-6-|
D|-7-7-------------7-7-------------7-7-------------------------9-9-----|
A|---------------------------------------------------------------------|
E|---------------------------------------------------------------------|
27 reproducciones
    • ½ Tono
    • A
    • Bb
    • B
    • C
    • Db
    • D
    • Eb
    • E
    • F
    • F#
    • G
    • Ab
  • Adicionar à lista

    0 comentarios

    Ver todos os comentários
    00:00 / 00:00
    outros vídeos desta música
    repetir qualidade Automático
    Outros vídeos desta música
    00:00 / 00:00
    Automático
    OK