Cifra Club

Aprenda

Gonzo

The All-American Rejects

Tablatura: Principal (guitarra)
tono: Ab
Intro (Solo de Baixo)
      (Entra a Bateria)
      (Ab)
      (Db)


     Ab
I'll never forget when we started out
The beat of the drum, a face in the crowd
     Db
It's better this way, it's better this way
How far we've come now not a soul can change


     Ab
Remember the road running under our feet
We'd shoot for the stars but we'd aim at the trees
     Db
It's better this way, it's better this way
Gambling with life it was our turn to play


     Ab
It's time
                                           Db
Only when you look forward can you see the climb
We bought the ticket so we'll take the ride


Ab
Every trial and every test
We'd drive to the East and we'd fly to the West
     Db
Just running away, just running away
We can be different 'cause they're all the same


Ab
Every night we'd ever start
In every beat of every heart
   Db
Is running away, just running away
Catching our breath at the end we can say 


     Ab
It's time
                                       Db
Only when you look forward can you see behind
                                        Ab
Every taste we can get was just sweet sublime
                                   Db
Holding onto the moment we let go alive
We bought the ticket so we'll take the ride


Fm
Day after day in the light
      Db
We're glowing in the dark
Ab
Standing was the sketch
  Eb
A fall that wasn't hard
   Fm
We lost ourselves to find
  Db
Somewhere down the line
     Ab
It's time


Solo (Db)
     (G# C#) x3


E|-------------------------------------------|
B|----------6------------6----------------6--|
G|-------------6h8p6--8----6s3--6h8p6--8-----|
D|-------------------------------------------|

E|-------------------------------------------|
B|--9--6--7p6------------6----------------6--|
G|-------------6h8p6--8----6s3--6h8p6--8-----|
D|-------------------------------------------|

E|--------------------------8------------------8--|
B|---9--6--7p6--9h11p9--11----9s6--9h11p9--11-----|
G|------------------------------------------------|
D|------------------------------------------------|

E|--11--8--9p8--------------8------------------8--|
B|--------------9h11p9--11----9s6--9h11p9--11-----|
G|------------------------------------------------|
D|------------------------------------------------|


Fm
Day after day in the light
      Db
We're glowing in the dark
Ab
Standing was the sketch
  Eb
A fall that wasn't hard
   Fm
We lost ourselves to find
  Db
Somewhere down the line
     Ab
It's time


    Ab
For some it's a god, for me it's a fact
   Db
We make a mistake and try taking one back
     Ab
It's better this way, it's better this way
    Db
Out of the grind and then into the grave


     Ab
It's time
                                       Db
Only when you look forward can you see behind
                                        Ab
Every taste we can get was just sweet sublime
                                   Db
Holding onto the moment we let go alive
                                       Ab
We bought the ticket so we'll take the ride

(Db)

Db Db     Db  Db Db  Db Db    Db   Db  Ab
We bought the ticket so we'll take the ride
Composição de The All-American Rejects
Colaboración y revision:
  • Sesé Paoliello
5 reproducciones
    • ½ Tono
    • A
    • Bb
    • B
    • C
    • Db
    • D
    • Eb
    • E
    • F
    • F#
    • G
    • Ab
  • Adicionar à lista

    0 comentarios

    Ver todos os comentários
    00:00 / 00:00
    outros vídeos desta música
    repetir qualidade Automático
    Outros vídeos desta música
    00:00 / 00:00
    Automático
    OK