Cifra Club

Aprenda

Kiss Yourself Goodbye

The All-American Rejects

Tablatura: Principal (guitarra)
tono: Ab
(intro guitarra 1 palm muted)

---------------------------------------|
---------------------------------------|
---13-(x8)-11-(x8)-9-(x8)-11-(x8)------|
---13------11------9------11-----------|(4x)
---------------------------------------|
---------------------------------------|

(intro guitarra 2)
-----------------------------------|
-----------------------------------|
-----------------------------------|
-----------------------------4-6---|(2x)
-----------------------------4-6---|
-----------------------------2-4---|

(guitarra 1 palm muted)
---------------------------------------|
---------------------------------------|
---13-(x8)-9-(x8)-11-(x16)-------------|
---13------9------11-------------------|(4x)
---------------------------------------|
---------------------------------------|

(pré-refrão)
--------------------------------|
--------------------------------|
--------4-----------------------|
--6-----4-----4-----2-----------|
--6-----2-----4-----2-----------|
--4-----------2-----0-----------|

---------------------------|
---------------------------|
---------------------------|
--6------4-----2-----4-----|
--6------4-----2-----4-----|
--4------2-----0-----2-----|

(refrão)
----------------------------------|
----------------------------------|
----------------6------9----------|
--6------9------6-(x8)-9-(x8)-----| (2x)
--6-(x8)-9-(x8)-4------7----------|
--4------7------------------------|

------------------------------------------------------|
------------------------------------------------------|
--13x-13/15-x-13-13-x-x-11--9-9--9-8-9--9-8-x-8-------|
--13x-13/15-x-13-13-x-x-11--9-9--9-8-9--9-8-x-8--4-6--|
-------------------------------------------------4-6--|
-------------------------------------------------2-4--|

(verso 2)
--------------------------------|
--------------------------------|
--------8/9---9/8---8/6---------|
--6-----8/9---9/8---8/6--4/6----|(2x)
--6-----6/7---7/6---6/4--4/6----|
--4----------------------2/4----|

(pré-refrão)
--------------------------------|
--------------------------------|
--------4-----------------------|
--6-----4-----4-----2-----------|
--6-----2-----4-----2-----------|
--4-----------2-----0-----------|

---------------------------|
---------------------------|
---------------------------|
--6------4-----2-----4-----|
--6------4-----2-----4-----|
--4------2-----0-----2-----|

(refrão)
----------------------------------|
----------------------------------|
----------------6------9----------|
--6------9------6-(x8)-9-(x8)-----| (2x)
--6-(x8)-9-(x8)-4------7----------|
--4------7------------------------|

(solo)
------------------------------------------------------15-------------------|
--------------------------------------------------15b----15br-13-11--------|
-------------------------------------5/7b-9-10b---------------------11-----|
-----5b-3/9---33-55-77-88-9b-9b-9b-------------------------------------14b-|
--------3/9----------------------------------------------------------------|
--------1/7----------------------------------------------------------------|

(outro)
----------------------------------|
----------------------------------|
-----------------4----------------|
--2----4----6----4----------------| (2x)
--2----4----6----2----------------|
--0----2----4---------------------|

-----------------|
-----------------|
-----------------|
--2----4----6----| (2x)
--2----4----6----|
--0----2----4----|

(guitarra 1 palm muted)
---------------------------------------|
---------------------------------------|
---13-(x8)-11-(x8)-9-(x8)-11-(x8)------|
---13------11------9------11-----------|(4x)
---------------------------------------|
---------------------------------------|

(intro guitarra 2)
-----------------------------------|
-----------------------------------|
-----------------------------------|
-----------------------------4-6---|(2x)
-----------------------------4-6---|
-----------------------------2-4---|

(refrão)
----------------------------------|
----------------------------------|
----------------6------9----------|
--6------9------6-(x8)-9-(x8)-----|(2x)
--6-(x8)-9-(x8)-4------7----------|
--4------7------------------------|

(outro 2)
----------------------------|
----------------------------|
----------4-----------------|
-6--4/2---4--6/4------------|(2x)
-6--4/2---2--6/4------------|
-4--2/0------4/2------------|

(final)
----------------------------|
----------------------------|
-------------4--------------|
-2----4-------6/4--6--------|
-2----4------------6--------|
-0----2------------4--------|
Colaboración y revision:
  • Cesar Romio
30 reproducciones
    • ½ Tono
    • A
    • Bb
    • B
    • C
    • Db
    • D
    • Eb
    • E
    • F
    • F#
    • G
    • Ab
  • Adicionar à lista

    0 comentarios

    Ver todos os comentários

    ¿Conseguiste tocar?

    0 Tocaram 0 Ainda não

    Grave um vídeo tocando Kiss Yourself Goodbye e nos envie!

    00:00 / 00:00
    outros vídeos desta música
    repetir qualidade Automático
    Outros vídeos desta música
    00:00 / 00:00
    Automático
    OK