Cifra Club

Aprenda

Last Song

The All-American Rejects

Tablatura: Principal (guitarra)
tono: D
Intro/Verso 1 
E|-----------------20-21----|--21~--
B|------21-18------------21-|-------
G|:--18--------------------:|-------
D|:------------------------:|-------
A|--------------------------|-------
E|--------------------------|-------

Verso 1
(As I leave will you be someone...)
E|-----------------------------------------------------------------------
B|-----------------------------------------------------------------------
G|--6-6-6-6-6-6-6-6-6-6-6-6-6-6-6-6--------------------------------------
D|--6-6-6-6-6-6-6-6-6-6-6-6-6-6-6-6--8-8-8-8-8-8-8-8-8-8-8-8-8-8-8-8-----
A|--4-4-4-4-4-4-4-4-4-4-4-4-4-4-4-4--8-8-8-8-8-8-8-8-8-8-8-8-8-8-8-8-----
E|-----------------------------------6-6-6-6-6-6-6-6-6-6-6-6-6-6-6-6-----
pm   .............................    .............................

E|-------------------------------------------------------------------------
B|-------------------------------------------------------------------------
G|-------------------------------------------------------------------------
D|--6-6-6-6-6-6-6-6-6-6-6-6-6-6-6-6--4-4-4-4-4-4-4-4-4-4-4-4-4-4-4-4-------
A|--6-6-6-6-6-6-6-6-6-6-6-6-6-6-6-6--4-4-4-4-4-4-4-4-4-4-4-4-4-4-4-4-------
E|--4-4-4-4-4-4-4-4-4-4-4-4-4-4-4-4--2-2-2-2-2-2-2-2-2-2-2-2-2-2-2-2-------
     .............................

Pré-Refrão
(You wanted the best, it wasn't me...)

E|----------------------------------------------------------------------
B|----------------------------------------------------------------------
G|-------------------6-6-6-6-6-6-6-6------------------------------------
D|--8-8-8-8-8-8-8-8--6-6-6-6-6-6-6-6--4-4-4-4-4-4-4-4--6-6-6-6-6-6-6-6-- x2
A|--8-8-8-8-8-8-8-8--4-4-4-4-4-4-4-4--4-4-4-4-4-4-4-4--6-6-6-6-6-6-6-6--
E|--6-6-6-6-6-6-6-6-------------------2-2-2-2-2-2-2-2--4-4-4-4-4-4-4-4--

Refrão
(As I go...)

E|----------------------------------------------------------------------
B|----------------------------------------------------------------------
G|--6-6-6-6-6-6-6-6-6-6-6-6-6-6-6-6-------------------------------------
D|--6-6-6-6-6-6-6-6-6-6-6-6-6-6-6-6--4-4-4-4-4-4-4-4-4-4-4-4-4-4-4-4----
A|--4-4-4-4-4-4-4-4-4-4-4-4-4-4-4-4--4-4-4-4-4-4-4-4-4-4-4-4-4-4-4-4----
E|-----------------------------------2-2-2-2-2-2-2-2-2-2-2-2-2-2-2-2----

E|----------------------------------------------------------------------
B|----------------------------------------------------------------------
G|----------------------------------------------------------------------
D|--8-8-8-8-8-8-8-8-8-8-8-8-8-8-8-8--6-6-6-6-6-6-6-6-6-6-6-6-6-6-6-6----
A|--8-8-8-8-8-8-8-8-8-8-8-8-8-8-8-8--6-6-6-6-6-6-6-6-6-6-6-6-6-6-6-6----
E|--6-6-6-6-6-6-6-6-6-6-6-6-6-6-6-6--4-4-4-4-4-4-4-4-4-4-4-4-4-4-4-4----

Verso 2

E|-----------------------------------------------------------------------
B|-----------------------------------------------------------------------
G|--6-6-6-6-6-6-6-6-6-6-6-6-6-6-6-6--------------------------------------
D|--6-6-6-6-6-6-6-6-6-6-6-6-6-6-6-6--8-8-8-8-8-8-8-8-8-8-8-8-8-8-8-8-----
A|--4-4-4-4-4-4-4-4-4-4-4-4-4-4-4-4--8-8-8-8-8-8-8-8-8-8-8-8-8-8-8-8-----
E|-----------------------------------6-6-6-6-6-6-6-6-6-6-6-6-6-6-6-6-----
pm   .............................    .............................

E|-----------------------------------
B|-----------------------------------
G|-----------------------------------
D|--6-6-6-6-6-6-6-6-6-6-6-6-6-6-6-6--
A--6-6-6-6-6-6-6-6-6-6-6-6-6-6-6-6--
E|--4-4-4-4-4-4-4-4-4-4-4-4-4-4-4-4--
     .............................

E|-----------------------------------------------------------------------
B|-----------------------------------------------------------------------
G|--6-6-6-6-6-6-6-6-6-6-6-6-6-6-6-6--------------------------------------
D|--6-6-6-6-6-6-6-6-6-6-6-6-6-6-6-6--8-8-8-8-8-8-8-8-8-8-8-8-8-8-8-8-----
A|--4-4-4-4-4-4-4-4-4-4-4-4-4-4-4-4--8-8-8-8-8-8-8-8-8-8-8-8-8-8-8-8-----
E|-----------------------------------6-6-6-6-6-6-6-6-6-6-6-6-6-6-6-6-----
pm   .............................    .............................

E|-------------------------------------------------------------------------
B|-------------------------------------------------------------------------
G|-------------------------------------------------------------------------
D|--6-6-6-6-6-6-6-6-6-6-6-6-6-6-6-6--4-4-4-4-4-4-4-4-4-4-4-4-4-4-4-4-------
A|--6-6-6-6-6-6-6-6-6-6-6-6-6-6-6-6--4-4-4-4-4-4-4-4-4-4-4-4-4-4-4-4-------
E|--4-4-4-4-4-4-4-4-4-4-4-4-4-4-4-4--2-2-2-2-2-2-2-2-2-2-2-2-2-2-2-2-------
     .............................

E|--9-9-9/---     -13-13-13/---13-13-13/---14-14-14/---13-13-13/-
B|-----------     -14-14-14/---14-14-14/---14-14-14/---14-14-14/-
G|-----------     -----------------------------------------------
D|----------- x4  -----------------------------------------------
A|-----------     -----------------------------------------------
E|-----------     -----------------------------------------------

Pré-refrão ; refrão



E|------|-------------20-21------
B|------|-----21-18---------21---
G|--6~~-|--18--------------------
D|--6~~-|------------------------ 
A|--4~~-|------------------------
E|------|------------------------

E|------------------------------------------------------------------------------------
B|------------------------------------------------------------------------------------
G|--6-6-6-6-6-6-6-6-6-8-8-8-8-8-8-8-8-11-11-11-11-11-11-11-10h11-13-13-13-13-13-13-13-
D|------------------------------------------------------------------------------------
A|------------------------------------------------------------------------------------
E|------------------------------------------------------------------------------------

Refrão final

E|----------------------------------------------------------------------
B|----------------------------------------------------------------------
G|--6-6-6-6-6-6-6-6-6-6-6-6-6-6-6-6-------------------------------------
D|--6-6-6-6-6-6-6-6-6-6-6-6-6-6-6-6--4-4-4-4-4-4-4-4-4-4-4-4-4-4-4-4----
A|--4-4-4-4-4-4-4-4-4-4-4-4-4-4-4-4--4-4-4-4-4-4-4-4-4-4-4-4-4-4-4-4----
E|-----------------------------------2-2-2-2-2-2-2-2-2-2-2-2-2-2-2-2----

E|----------------------------------------------------------------------
B|----------------------------------------------------------------------
G|----------------------------------------------------------------------
D|--8-8-8-8-8-8-8-8-8-8-8-8-8-8-8-8--6-6-6-6-6-6-6-6-6-6-6-6-6-6-6-6---- x2
A|--8-8-8-8-8-8-8-8-8-8-8-8-8-8-8-8--6-6-6-6-6-6-6-6-6-6-6-6-6-6-6-6----
E|--6-6-6-6-6-6-6-6-6-6-6-6-6-6-6-6--4-4-4-4-4-4-4-4-4-4-4-4-4-4-4-4----

E|--------
B|--------
G|--6~----
D|--6~----
A|--4~----
E|--------
Composição de The All-American Rejects
128 reproducciones
    • ½ Tono
    • A
    • Bb
    • B
    • C
    • Db
    • D
    • Eb
    • E
    • F
    • F#
    • G
    • Ab
  • Adicionar à lista

    0 comentarios

    Ver todos os comentários
    00:00 / 00:00
    outros vídeos desta música
    repetir qualidade Automático
    Outros vídeos desta música
    00:00 / 00:00
    Automático
    OK