Cifra Club

Real World

The All-American Rejects

Cifrado: Principal (guitarra y guitarra eléctrica)
tono: E
(intro 2x)
E|---------------------------------------------------|
B|---------------------------------------------------|
G|---------------------------------------------------|
D|---------------------------------------------------|
A|---------------------------------------------------|
E|--12~--\--7~--/--10~--\--5~----5~-/-7~----3-2-0----|

E|------------------------------------------------------------------------------------|
B|------------------------------------------------------------------------------------|
G|--7-7-7-7-7-7-7-7-10-10-10-10-10-10-10-10-5-5-5-5-5-5-5-5-12-12-12-12-12-12-12-12---|
D|--7-7-7-7-7-7-7-7-10-10-10-10-10-10-10-10-5-5-5-5-5-5-5-5-12-12-12-12-12-12-12-12---|
A|--5-5-5-5-5-5-5-5-8--8--8--8--8--8--8--8--3-3-3-3-3-3-3-3-10-10-10-10-10-10-10-10---|
E|------------------------------------------------------------------------------------|

E|---------------------------------------------------------------------|
B|---------------------------------------------------------------------|
G|--7-7-7-7-7-7-7-7-5-5-5-5-5-5-5-5-5-5-5-5-5-5-5-5-5------------------|
D|--7-7-7-7-7-7-7-7-5-5-5-5-5-5-5-5-5-5-5-5-5-5-5-5-5-5-5-5-5-5-5-5-5--|
A|--5-5-5-5-5-5-5-5-3-3-3-3-3-3-3-3-3-3-3-3-3-3-3-3-3-5-5-5-5-5-5-5-5--|
E|----------------------------------------------------3-3-3-3-3-3-3-3--|

E|--13-12-13-12-----13-12-13-12-----13-12-13-12--15-13-12----------|
B|--------------------------------------------------------15-------|
G|-----------------------------------------------------------------|
D|-----------------------------------------------------------------|
A|-----------------------------------------------------------------|
E|-----------------------------------------------------------------|

(pré-refrão)
E|------|
B|------|
G|--10--|
D|--10--| 
A|--8---|
E|------|

E|------------------------------------------------------------------------------------|
B|------------------------------------------------------------------------------------|
G|--7-7-7-7-7-7-7-7-10-10-10-10-10-10-10-10-5-5-5-5-5-5-5-5-12-12-12-12-12-12-12-12---|
D|--7-7-7-7-7-7-7-7-10-10-10-10-10-10-10-10-5-5-5-5-5-5-5-5-12-12-12-12-12-12-12-12---|
A|--5-5-5-5-5-5-5-5-8--8--8--8--8--8--8--8--3-3-3-3-3-3-3-3-10-10-10-10-10-10-10-10---|
E|------------------------------------------------------------------------------------|

(refrão)
E|---------------------------------------------------------------------|
B|---------------------------------------------------------------------|
G|--7-7-7-7-7-7-7-7-5-5-5-5-5-5-5-5-5-5-5-5-5-5-5-5-5------------------|
D|--7-7-7-7-7-7-7-7-5-5-5-5-5-5-5-5-5-5-5-5-5-5-5-5-5-5-5-5-5-5-5-5-5--|
A|--5-5-5-5-5-5-5-5-3-3-3-3-3-3-3-3-3-3-3-3-3-3-3-3-3-5-5-5-5-5-5-5-5--|
E|----------------------------------------------------3-3-3-3-3-3-3-3--|

E|------------------------------------------------------------------------------------------|
B|------------------------------------------------------------------------------------------|
G|--10-10-10-10-10-10-10-10-10-10-10-10-10-10-10-10-9-9-9-9-9-9-9-9-12-12-12-12-12-12-12-12-|
D|--x--x--x--x--x--x--x--x--x--x--x--x--x--x--x--x--x-x-x-x-x-x-x-x-x--x--x--x--x--x--x--x--|
A|--8--8--8--8--8--8--8--8--8--8--8--8--8--8--8--8--7-7-7-7-7-7-7-7-10-10-10-10-10-10-10-10-|
E|------------------------------------------------------------------------------------------|

E|--------------------------------------------------|
B|--------------------------------------------------|
G|--------------------------------------------------|
D|-------------------------------------5--3-2-------|
A|----------5--3------------------------------3-----|
E|---12\---------5-3--0-----------------------------|

E|--------------------------------------------|
B|--------------------------------------------|
G|--10-10-----10--10------9--9------12--12----|
D|--10-10-----10--10------9--9------12--12----|
A|--8--8------8---8-------7--7------10--10----|
E|--------------------------------------------|

(ponte)
E|-----------------------------------------------------------------|
B|-----------------------------------------------------------------|
G|--7--------5--------4--------3--------7--------5--------4--------|
D|--7--------5--------4--------3--------7--------5--------4--------|
A|--5--------3--------2--------1--------5--------3--------2--------|
E|-----------------------------------------------------------------|

E|------------------|
B|------------------|
G|--12---10---9---7-|
D|--12---10---9---7-|
A|--10---8----7---5-|
E|------------------|
Composición de The All-American Rejects
Colaboración y revisión:
  • Felipe Oliveira
65 vistas
    • ½ Tono
    • A
    • Bb
    • B
    • C
    • Db
    • D
    • Eb
    • E
    • F
    • F#
    • G
    • Ab
  • Agregar a la lista

    0 comentarios

    Ver todos los comentarios
    00:00 / 00:00
    Outros vídeos desta música
    Repetir Calidad Automático
    Outros vídeos desta música
    00:00 / 00:00
    Automático
    OK