Cifra Club

Shes My Girlfriend Now

The All-American Rejects

Cifrado: Principal (guitarra y guitarra eléctrica)
tono: G
my first tab

intro             0:12
-----------------------------------------------------------------------------|
-----------------------------------------------------------------------------|
-----------------------------------------------------------------------------|
--7x5--------------9-99--999--7-77-777---------------------------------------|
5x5x3--------------7-77--777--5-55-555---------------------------------------|
3x---------------------------------------------------------------------------|

verses (played first time at 0:33)
-----------------------------------------------------------------------------|
-----------------------------------------------------------------------------|
-----------------------------------------------------------------------------|
----5x16-7x8-5x8-9x8-7x8-----------------------------------------------------|
5x163----5---3---7---5-------------------------------------------------------|
3----------------------------------------------------------------------------|
               1:15 chorus its just the basic riff all na na na nas
-----------------------------------------------------------------------------|
-----------------------------------------------------------------------------|
-----------------------------------------------------------------------------|
---7----7--5--9-7------------------------------------------------------------|
5--5--5-5--3--7-5------------------------------------------------------------|
3-----3----------------------------------------------------------------------|

2:20
------------------------------------------------------------------------------|
----------------0---0---------------0--------0---o----------------------------|
--0----0---------0---0---------------0------0-----o---------------------------|
---0----0--------------x2------------------0----------------------------------|
----------------3---3--------------7-----5-----3------------------------------|
-3----3-----------------------------------------------------------------------|
2:38 play the same notes in the verse but like hes playing it now and thats about it its 
good starter song
-----------------------------------------------------------------------------|
-----------------------------------------------------------------------------|
-----------------------------------------------------------------------------|
-----------------------------------------------------------------------------|
-----------------------------------------------------------------------------|
-----------------------------------------------------------------------------|
Compositor não encontrado.
24 vistas
    • ½ Tono
    • A
    • Bb
    • B
    • C
    • Db
    • D
    • Eb
    • E
    • F
    • F#
    • G
    • Ab
  • Agregar a la lista

    0 comentarios

    Ver todos los comentarios

    ¿Lograste tocar?

    0 Tocaron 0 Aún no

    ¡Graba un video tocando Shes My Girlfriend Now y envíanoslo!

    00:00 / 00:00
    Outros vídeos desta música
    Repetir Calidad Automático
    Outros vídeos desta música
    00:00 / 00:00
    Automático
    OK