Cifra Club

Aprenda

Swing Swing

The All-American Rejects

Tablatura: Principal (guitarra)
tono: D
intro(2x): distorção (eu uso um onerr overdrive)                                                

Guitarra1
E|----------------------------------------------------------------------
B|----------------------------------------------------------------------
G|----------------------------------------------------------------------
D|--------------7-7--7------------5-5--5--------------------------------
A|-----5-5--5---5-5--5---2-2--2---3-3--3--------------------------------
E|-----3-3--3------------0-0--0-----------------------------------------

Guitarra2
E|-----3-3--3---3-3--3---3-3--3---3--3---3------------------------------
B|-----3-3--3---3-3--3---3-3--3---3--3---3------------------------------
G|-----0-0--0---2-2--2---0-0--0---0--0---0------------------------------
D|-----0-0--0---0-0--0---2-2--2---2--2---2------------------------------
A|-----2-2--2---0-0--0---2-2--2---3--3---3------------------------------
E|-----3-3--3---2-2--2---0-0--0---0--0---0------------------------------

Começa: "Days ......."

Guitarra1 (8x)
E|-2-2--2---------------------------------------------------------------
B|-2-2--2---------------------------------------------------------------
G|-0-0--0---------------------------------------------------------------
D|----------------------------------------------------------------------
A|----------------------------------------------------------------------
E|----------------------------------------------------------------------

Guitarra2 (2x)
E|-----3-3...---3-3...---3-3...---3--3...------------------------------
B|-----3-3...---3-3...---3-3...---3--3...------------------------------
G|-----0-0...---2-2...---0-0...---0--0...------------------------------
D|-----0-0...---0-0...---2-2...---2--2...------------------------------
A|-----2-2...---0-0...---2-2...---3--3...------------------------------
E|-----3-3...---2-2...---0-0...---0--0...------------------------------

Pré Refrão: "Did you....."

Guitarra1 (abafado) (2x)
E|----------------------------------------------------------------------
B|----------------------------------------------------------------------
G|----------------------------------------------------------------------
D|--------------7-7...------------5-5...--------------------------------
A|-----5-5...---5-5...---2-2...---3-3...--------------------------------
E|-----3-3...------------0-0...-----------------------------------------

Guitarra2 (abafado) (2x)
E|-----3-3...---3-3...---3-3...---3--3...------------------------------
B|-----3-3...---3-3...---3-3...---3--3...------------------------------
G|-----0-0...---2-2...---0-0...---0--0...------------------------------
D|-----0-0...---0-0...---2-2...---2--2...------------------------------
A|-----2-2...---0-0...---2-2...---3--3...------------------------------
E|-----3-3...---2-2...---0-0...---0--0...------------------------------

Refrão: "Swing Swing ........"

Guitarra1 
E|----------------------------------------------------------------------
B|----------------------------------------------------------------------
G|----------------------------------------------------------------------
D|--------------7-7...------------5-5...--------------------------------
A|-----5-5...---5-5...---2-2...---3-3...--------------------------------
E|-----3-3...------------0-0...-----------------------------------------

Guitarra2 
E|-----3-3...---3-3...---3-3...---3--3...------------------------------
B|-----3-3...---3-3...---3-3...---3--3...------------------------------
G|-----0-0...---2-2...---0-0...---0--0...------------------------------
D|-----0-0...---0-0...---2-2...---2--2...------------------------------
A|-----2-2...---0-0...---2-2...---3--3...------------------------------
E|-----3-3...---2-2...---0-0...---0--0...------------------------------

E|-----------------------15----14-12----------15-----------------------------
B|-7/15-15-13-12--13--------12----12-12/13-15--13-12-13--------12------------
G|-------------------12---------------------------------12--12----12-11-12-14
D|---------------------------------------------------------------------------
A|---------------------------------------------------------------------------
E|---------------------------------------------------------------------------


Repete tudo de novo!!
obs: A parte que ele canta "burry me!......carry me"

Faz-se os dois primeiros acordes das guitarrs como a intro, mas os últimos dedilhados,
Composição de The All-American Rejects
213 reproducciones
    • ½ Tono
    • A
    • Bb
    • B
    • C
    • Db
    • D
    • Eb
    • E
    • F
    • F#
    • G
    • Ab
  • Adicionar à lista

    0 comentarios

    Ver todos os comentários
    00:00 / 00:00
    outros vídeos desta música
    repetir qualidade Automático
    Outros vídeos desta música
    00:00 / 00:00
    Automático
    OK