Cifra Club

Aprenda

Time Stands Still

The All-American Rejects

Tablatura: Principal (guitarra)
tono: C
Intro   
|---0--0--0---0--0---0--0--0-0-x--0--0--0----0--0--0---0--0---0--0--0-0-x-x-x-| 
|---1--1--1---1--1---1--1--1-1-x--1--1--1----1--1--1---1--1---1--1--1-1-x-x-x-| 
|---0--0--0---0--0---2--2--2-2-x--2--2--2----0--0--0---0--0---2--2--2-2-x-x-x-| 
|---2--2--2---0--0---2--2--2-2-x--2--2--2----2--2--2---0--0---2--2--2-2-x-x-x-| 
|---3--3--3---2--2---0--0--0-0-x--0--0--0----3--3--3---2--2---0--0--0-0-x-x-x-| 
|-----------------------------------------------------------------------------| 
 
Chorus 
|--------------------------------------------| 
|--------------------------------------------| 
|--5-5-5-x-x---------------------------------| 
|--5-5-5-x-x--5-5-5-x-x--3-3-3-x--3-3-3------|  X2 
|--3-3-3-x-x--5-5-5-x-x--3-3-3-x--3-3-3------| 
|-------------3-3-3-x-x--1-1-1-x--1-1-1------| 
 
 
|---0--0--0---0--0---0--0--0-0---0---0--0--0---0--0---0--0--0-0--| 
|---1--1--1---1--1---1--1--1-1---1---1--1--1---1--1---1--1--1-1--| 
|---0--0--0---0--0---2--2--2-2---2---0--0--0---0--0---2--2--2-2--| 
|---2--2--2---0--0---2--2--2-2---2---2--2--2---0--0---2--2--2-2--| 
|---3--3--3---2--2---0--0--0-0---0---3--3--3---2--2---0--0--0-0--| 
|----------------------------------------------------------------| 
 
|-0--0--0---0--0---0--0--0-0---0---0--0--0---0--0---0~~| 
|-1--1--1---1--1---1--1--1-1---1---1--1--1---1--1---1~~| 
|-0--0--0---0--0---2--2--2-2---2---0--0--0---0--0---2~~| 
|-2--2--2---0--0---2--2--2-2---2---2--2--2---0--0---2~~| 
|-3--3--3---2--2---0--0--0-0---0---3--3--3---2--2---0~~| 
|------------------------------------------------------| 
They play these two parts together 
 
|------0----| 
|----1--1---| 
|--0--------|    X7 
|-----------| 
|-----------| 
|-----------| 
 
Chorus 
|--------------------------------------------| 
|--------------------------------------------| 
|--5-5-5-x-x---------------------------------| 
|--5-5-5-x-x--5-5-5-x-x--3-3-3-x--3-3-3------|  X4 
|--3-3-3-x-x--5-5-5-x-x--3-3-3-x--3-3-3------| 
|-------------3-3-3-x-x--1-1-1-x--1-1-1------| 
 
 
|---0--0--0---0--0---0--0--0-0---0---0--0--0---0--0---0--0--0-0--| 
|---1--1--1---1--1---1--1--1-1---1---1--1--1---1--1---1--1--1-1--| 
|---0--0--0---0--0---2--2--2-2---2---0--0--0---0--0---2--2--2-2--| 
|---2--2--2---0--0---2--2--2-2---2---2--2--2---0--0---2--2--2-2--| 
|---3--3--3---2--2---0--0--0-0---0---3--3--3---2--2---0--0--0-0--| 
|----------------------------------------------------------------| 
 
|-0--0--0---0--0---0--0--0-0---0---0--0--0---0--0---0~~| 
|-1--1--1---1--1---1--1--1-1---1---1--1--1---1--1---1~~| 
|-0--0--0---0--0---2--2--2-2---2---0--0--0---0--0---2~~| 
|-2--2--2---0--0---2--2--2-2---2---2--2--2---0--0---2~~| 
|-3--3--3---2--2---0--0--0-0---0---3--3--3---2--2---0~~| 
|------------------------------------------------------| 
 
 
|------0----|  
|----1--1---| 
|--0------- |   X7 
|-----------| 
|-----------| 
|-----------| 
 
Chorus 
|--------------------------------------------| 
|--------------------------------------------| 
|--5-5-5-x-x---------------------------------| 
|--5-5-5-x-x--5-5-5-x-x--3-3-3-x--3-3-3------|  X4 
|--3-3-3-x-x--5-5-5-x-x--3-3-3-x--3-3-3------| 
|-------------3-3-3-x-x--1-1-1-x--1-1-1------| 
 
|-------------------------------------| 
|-------------------------------------| 
|--------------------5-5-5-5----------| 
|--3-3-3-3--5-5-5-5--5-5-5-5--5-5-5-5-|   
|--3-3-3-3--5-5-5-5--3-3-3-3--5-5-5-5-| 
|--1-1-1-1--3-3-3-3-----------3-3-3-3-| 
 
|------------------------------------| 
|------------------------------------| 
|--------------------5-5-5-5-5-5-5-5-| 
|--3-3-3-3--5-5-5-5--5-5-5-5-5-5-5-5-|   
|--3-3-3-3--5-5-5-5--3-3-3-3-3-3-3-3-| 
|--1-1-1-1--3-3-3-3------------------| 
 
|-------------------------------------| 
|-------------------------------------| 
|--------------------5-5-5-5----------| 
|--3-3-3-3--5-5-5-5--5-5-5-5--5-5-5-5-|   
|--3-3-3-3--5-5-5-5--3-3-3-3--5-5-5-5-| 
|--1-1-1-1--3-3-3-3-----------3-3-3-3-| 
 
 
|---0--0--0---0--0---0--0--0-0---0---0--0--0---0--0---0--0--0-0--| 
|---1--1--1---1--1---1--1--1-1---1---1--1--1---1--1---1--1--1-1--| 
|---0--0--0---0--0---2--2--2-2---2---0--0--0---0--0---2--2--2-2--| 
|---2--2--2---0--0---2--2--2-2---2---2--2--2---0--0---2--2--2-2--| 
|---3--3--3---2--2---0--0--0-0---0---3--3--3---2--2---0--0--0-0--| 
|----------------------------------------------------------------| 
 
|-0--0--0---0--0---0--0--0-0---0---0--0--0---0--0---0~~| 
|-1--1--1---1--1---1--1--1-1---1---1--1--1---1--1---1~~| 
|-0--0--0---0--0---2--2--2-2---2---0--0--0---0--0---2~~| 
|-2--2--2---0--0---2--2--2-2---2---2--2--2---0--0---2~~| 
|-3--3--3---2--2---0--0--0-0---0---3--3--3---2--2---0~~| 
|------------------------------------------------------| 
 
|------0----|  
|----1--1---| 
|--0------- |   X7 
|-----------| 
|-----------| 
|-----------| 
 
Chorus 
|--------------------------------------------| 
|--------------------------------------------| 
|--5-5-5-x-x---------------------------------| 
|--5-5-5-x-x--5-5-5-x-x--3-3-3-x--3-3-3------|  X7 
|--3-3-3-x-x--5-5-5-x-x--3-3-3-x--3-3-3------| 
|-------------3-3-3-x-x--1-1-1-x--1-1-1------| 
 
Chorus 
|-----------------------------| 
|-----------------------------| 
|--3-3-3-x-x------------------| 
|--5-5-5-x-x--3-3-3-x-x----1~~|  
|--5-5-5-x-x--5-5-5-x-x----3~~| 
|-------------5-5-5-x-x----3~~|
Composição de The All-American Rejects
Colaboración y revision:
  • Fernando Riato
69 reproducciones
    • ½ Tono
    • A
    • Bb
    • B
    • C
    • Db
    • D
    • Eb
    • E
    • F
    • F#
    • G
    • Ab
  • Adicionar à lista

    0 comentarios

    Ver todos os comentários

    ¿Conseguiste tocar?

    0 Tocaram 0 Ainda não

    Grave um vídeo tocando Time Stands Still e nos envie!

    00:00 / 00:00
    outros vídeos desta música
    repetir qualidade Automático
    Outros vídeos desta música
    00:00 / 00:00
    Automático
    OK