Cifra Club

Algo Que Decir

Allison

Cifrado: Principal (guitarra y guitarra eléctrica)
Já pensou em usar uma coleção de roupas do Cifra Club? Responda as perguntas abaixo e nos ajude nessa missão! →
tono: D
(Primera guitarra)
       A

E|----------------------------------|
B|----------------------------------|
G|----7-----------------------------|
D|----7-----------------------------|( x8)
A|----5---5-8-7---3-3---3/5---1/3--0|
E|----------------------------------|
(después de cuatro veces entra la
 otra guitarra haciendo esto)
(Segunda guitarra)
E|------------------------------------|
B|------------------------------------|
G|----7-------------------------------|(x4)
D|----7-----7-5/3---------------------|
A|----5---5---------3-3---3/5---1/3-0-|
E|------------------------------------|
(Cuando empieza el verso
 LA primera guitarra
 se queda haciendo esto
y la segunda no hace nada
hasta el coro)

(Les voy a poner los tonos que hace el
bajo en la letra)
     A#m
     No puede ser,
   no puedo entender
E|-------------|-------------|
B|-------------|-------------|
G|-------------|-------------|
D|--3-----2--2-|--3-----2--2-|
A|--1(x8)-1--1-|--1(x8)-1--1-|
E|-------------|-------------|
 Dm
      por que las cosas van,
                A#m
     a donde dicen los demás,
E|-----------------|------------------|
B|-----------------|------------------|
G|------------------|-----------------|
D|---7-----5----5----|--75-----5------|
A|---5(X8)-----5-5-----|-5(X8)-5--5---|
E|------------------------------------|------------------

        que las mentiras hablen,
                   C
          que digan algo que
E|--------------|--------------|
B|--------------|--------------|
G|--------------|--------------|
D|--3-----2--2--|--3-----2--2--|
A|--3(X8)-3--3--|--3(X8)-3--3--|
E|--3-----3--3--|--3-----3--3--|

       No quiero saber,
               A#m
    y que duele desde ayer.
E|--------------|---------------|
B|--------------|---------------|
G|--------2--2--|---------------|
D|--5-----3--3--|--5-----10--9--|
A|--3(X8)-3--3--|--3(X8)-8---7--|
E|--------------|---------------|
Coro:
      A#m     F  C    Em  F#m
y es que he decidido ser un motivo,
     A#m      F  C
     mas  que una razón
E|--------------------------|
B|--------------------------|
G|--3-----------5-----------|(X2)
D|--3-----3-----5-----0--3--|
A|--1(X5)-3(X5)-3(X5)-0--3--|
E|--------3-----------0--3--|
 Em F#m A#m F C Em F#m
 para desarmar su relación,
     quiero largarme
E|--------------------------|
B|--------------------------|
G|--3-----------5-----------|
D|--3-----3-----5-----0--3--|
A|--1(x5)-3(x5)-3(x5)-0--3--|
E|--------3-----------0--3--|
           Em F#m
  Y no ver nunca más, lo que paso.
E|-------------------------|
B|-------------------------|
G|-3-----------5-----------|
D|-3-----3-----5-----0--3--|
A|-1(x5)-3(x5)-3(x5)-0--3--|
E|-------3-----------0--3--|

(se repite intro)

(en el segundo verso la segunda
 guitarra y el bajo se quedan
haciendo los tonosy la primera guitarra
 se queda haciendo el solo)

 Verso:
        A#m
  Que injusto es, mirar las,
     cicatrices que
E|-----------------------|
B|-----------------------|
G|-----------------------|
D|--3-3-3----------------|(X2)
A|--1-1-1(x3)-3/5--1/3-0-|
E|-----------------------|
 Dm
      Haz dejado en mi,
    las cosas que hacen y
E|--------------------------------|
B|--------------------------------|
G|--------------------------------|
D|--7-----------------------------|(x2)
A|--7--5--8-7---3-3---3/5---1/3-0-|
E|--5-----------------------------|
 F
          Miro que soy,
        un infeliz y que
E|-------------|-------------|
B|-------------|-------------|
G|-------------|-------------|
D|--3-----2--2-|--3-----2--2-|
A|--1(x8)-1--1-|--1(x8)-1--1-|
E|-------------|-------------|
 C
           Nunca quise ser
                  A#m
           y ahora soy así
E|-------------|---------------------|
B|-------------|---------------------|
G|--------2--2-|---------------------|
D|--5-----3--3-|--5----3-2-0-2-3-2-0-|
A|--3(x8)-3--3-|--3(x8)--------------|
E|-------------|---------------------|

(se repite los tonos y la tablatura del coro)

Coro:
      A#m    F  C
Y es que he decidido ser,
 Em F#m   A#m    F   C
un motivo más que una razón
Em  F#m   A#m      F   C
Para desarmar su relación
 Em   F#m
quiero largarme
 A#m     F   C
y no ver nunca más
 Em  F#m
 Lo que paso.

(En el puente les voy a poner los
tonos del bajo arriba del solo)

Puente:

E|-----------------------|
B|-----------------------|
G|--3-3-3--5-5-5--7-7-7--|
D|--3-3-3--5-5-5--7-7-7--|
A|--1-1-1--3-3-3--5-5-5--|
E|-----------------------|
         A#m        F  G#m

E|-----------------------|
B|-----------------------|
G|------------------3--5-|(esto es dos veces no lo de arriba)
D|--10---10---10----3--5-|
A|--10---10---10----1--3-|
E|--10---10---10---------|

           D

E|------------------------------|
B|--10-10---11-10---10/11--10/6-|
G|------------------------------|
D|------------------------------|
A|------------------------------|
E|------------------------------|
       F          C

E|-----------------------|
B|-----------------------|
G|--9-9-10-9---9/10--9/7-|
D|-----------------------|
A|-----------------------|
E|-----------------------|
          D

E|------------------------------|
B|--10-10---11-10---10/11--10/6-|
G|------------------------------|
D|------------------------------|
A|------------------------------|
E|------------------------------|

E|-----------------------------|
B|-----------------------------|
G|--9-9-9-9--3--9-9-9-9--5-----|
D|-----------3-----------5-----|
A|-----------1-----------3-----|
E|-----------------------------|

(Se repite el coro y
 el final es así)

(Les voy a poner los tonos  del
bajo arriba de la tablatura)

(Final)

(Primera guitarra)
      D(x5)        D

E|---------------------|
B|---------------------|
G|---------------------|
D|-----------------7---|
A|--5-5--5-8-7(x5)-7---|
E|-----------------5---|

(Mientras la primera guitarra hace eso
  la segunda guitarra hace esto)

(Segunda guitarra)
      D(x5)  D

E|------------|
B|------------|
G|--7-7-----7-|
D|--7-7-----7-|
A|--5-5(x5)-5-|
E|------------|
Compositor não encontrado.
Colaboración y revisión:
  • Nicky
1.072 vistas
    • ½ Tono
    • A
    • Bb
    • B
    • C
    • Db
    • D
    • Eb
    • E
    • F
    • F#
    • G
    • Ab
  • Agregar a la lista

    0 comentarios

    Ver todos los comentarios

    ¿Lograste tocar?

    0 Tocaron 0 Aún no

    ¡Graba un video tocando Algo Que Decir y envíanoslo!

    00:00 / 00:00
    Outros vídeos desta música
    Repetir Calidad Automático
    Outros vídeos desta música
    00:00 / 00:00
    Automático
    OK