Cifra Club

Midnight Rider

Allman Brothers Band

Cifrado: Principal (guitarra y guitarra eléctrica)
tono: G
Intro:
      D5                            D
      (4x)                        (4x)
E|-------------|--------------------2-2-x-2~-----------|
B|-------------|--------------------3-3-x-3~-----------|
G|---7-7-x-7---|--------------------x-x-x-x------------|
D|---7-7-x-7---|--------------------0-0-x-0~-----------|
A|---5-5-5-5---|-------------0-h3----------------------|
E|-------------|---------------------------------------|

          D
E|-------2-2-x-2~---|
B|-------3-3-x-3~---|
G|-------x-x-x-x----|
D|-------0-0-x-0~---|
A|--0-h3------------|
E|------------------|


Well, I've got to run to keep from hiding,

And I'm bound to keep on riding.

And I've got one more silver dollar,
   Gm7
But I'm not gonna let them catch me, no,
 C                                     D
Not gonna let 'em catch the Midnight Rider.

Base
And I don't own the clothes I'm wearing,

And the road goes on forever,

And I've got one more silver dollar,
   Gm7
But I'm not gonna let them catch me, no
  C                                   D
Not gonna let 'em catch the Midnight Rider.

(Solo)

Base
And I've gone by the point of caring,

Some old bed I'll soon be sharing,

And I've got one more silver dollar,
   Gm7
But I'm not gonna let 'em catch me, no
C                                       D
Not gonna let them catch the Midnight Rider.
Base
00:00 / 00:00
Otros videos de esta canción
Repetir
Otros videos de esta canción
Composición de Gregg Allman / Robert Kim Payne
Colaboración y revisión:
  • Ricardo Emídio
  • Raul guimaraes
417 exhibiciones
    • ½ Tono
    • A
    • Bb
    • B
    • C
    • Db
    • D
    • Eb
    • E
    • F
    • F#
    • G
    • Ab
  • Agregar a la lista
    00:00 / 00:00
    OK