Cifra Club

Fragile Equality

Almah

Tab de bajo: Principal
Acompaña nuestras novedades de Cifra Club en español.
¡Sigue nuestro perfil en Instagram!
Intro
G||-------|--------------------------|------------------------------|
D||-------|--------------------------|------------------------------|
A||-------|--------------------------|------------------------------|
E||-------|--------------------------|--2--2-2-2--2-2-2--2-2-2--2-2-|
B||-------|--3--3--3--3--3--3--3--3--|------------------------------|

------------------------------|------------------------------|
------------------------------|------------------------------|
------------------------------|------------------------------|
--5--5-5-5--5-5-5--5-5-5--5-5-|--2--2-2-2--2-2-2--2-2-2--2-2-|
------------------------------|------------------------------|

-----------------------------|------------------------------|
-----------------------------|------------------------------|
-----------------------------|------------------------------|
-----------------------------|--2--2-2-2--2-2-2--2-2-2--2-2-|
--3--3-3-3--3-3-3--3-3-3-5---|------------------------------|

------------------------------|------------------------------|
------------------------------|------------------------------|
------------------------------|------------------------------|
--5--5-5-5--5-5-5--5-5-5--5-5-|--2--2-2-2--2-2-2--2-2-2--2-2-|
------------------------------|------------------------------|

-----------------------------|----------------------------------|
-----------------------------|----------------------------------|
-----------------------------|----------------------------------|
-----------------------------|----------------------------------|
--3--3-3-3--3-3-3--3-3-3-5---|--7-7-7-7-7-7-7-7---7-7-7-7-7-7-7-|

--------------------------------|----------------------------------|
--------------------------------|----------------------------------|
--------------------------------|----------------------------------|
--------------------------------|----------------------------------|
--8-8-8-8-8-8-8-8---8-8-8-10----|--7-7-7-7-7-7-7-7---7-7-7-7-7-7-7-|

-------------------------------------------|----------------------------------|
-------------------------------------------|----------------------------------|
-------------------------------------------|----------------------------------|
-------------------------------------------|----------------------------------|
--10-10-10-10-10-10-10-10---10-10-10-10----|--7-7-7-7-7-7-7-7---7-7-7-7-7-7-7-|

--------------------------------|----------------------------------|
--------------------------------|----------------------------------|
--------------------------------|----------------------------------|
--------------------------------|----------------------------------|
--8-8-8-8-8-8-8-8---8-8-8-10----|--7-7-7-7-7-7-7-7---7-7-7-7-7-7-7-|

-------------------------------------------|-------------------|
-------------------------------------------|-------------------|
-------------------------------------------|-------------------|
-------------------------------------------|-------------------|
--10-10-10-10-10-10-10-10---10-10-10-10----|-------------------|

Verso 1
----------------------------------------------|
----------------------------------------------|
----------------------------------------------|
--0-3-2-0-2-3-0-6-0-0-0-0-0-0---0-0-0-0-0-0---|
----------------------------------------------|

----------------------------------------------|
----------------------------------------------|
----------------------------------------------|
--0-3-2-0-2-3-0-8-0-0-0-0-0-0---0-0-0-0-0-0---|
----------------------------------------------|

----------------------------------------------|
----------------------------------------------|
----------------------------------------------|
--0-3-2-0-2-3-0-6-0-0-0-0-0-0---0-0-0-0-0-0---|
----------------------------------------------|

----------------------------------|
----------------------------------|
----------------------------------| 2x
--0-3-2-0-2-3-0-6-5-0-5-3-0-3-2-0-|
----------------------------------| Obs.: na segunda fez repete o ultimo compasso


Ponte
------------------------------|------------------------------|
------------------------------|------------------------------|
------------------------------|------------------------------|
--2--2-2-2--2-2-2--2-2-2--2-2-|--5--5-5-5--5-5-5--5-5-5--5-5-|
------------------------------|------------------------------|

------------------------------|-----------------------------|
------------------------------|-----------------------------|
------------------------------|-----------------------------|
--2--2-2-2--2-2-2--2-2-2--2-2-|-----------------------------|
------------------------------|--3--3-3-3--3-3-3--3-3-3-5---|

Verso 2
-------------------------------|-------------------------------|
-------------------------------|-------------------------------|
-------------------------------|-------------------------------|
--0-3-2-0-2-3-0-6---0-0--0--0--|--0-3-2-0-2-3-0-8---0-0--0--0--|
-------------------------------|-------------------------------|

-------------------------------|----------------------------------|
-------------------------------|----------------------------------|
-------------------------------|----------------------------------|
--0-3-2-0-2-3-0-6---0-0--0--0--|--0-3-2-0-2-3-0-6-5-0-5-3-0-3-2-0-|
-------------------------------|----------------------------------|



Refrão
---------------------------|---------------------------|---------------------------|
-------------------4-4-----|-------------------7-7-----|---------------------------|
---------------4-4-----4-4-|---------------7-7-----7-7-|---------------------------|
--2---2---2----------------|--5---5---5----------------|--0---0---0----------------|
---------------------------|---------------------------|---------------------------|

------------------------|---------------------------|
------------------------|-------------------4-4-----|
------------------------|---------------4-4-----4-4-|
------------------------|--2---2---2----------------|
--3---3--3---5---5--5---|---------------------------|

---------------------------|---------------------------|
-------------------7-7-----|---------------------------|
---------------7-7-----7-7-|---------------------------|
--5---5---5----------------|--0---0---0----------------|
---------------------------|---------------------------|

-----------------------------|
-----------------------------|
-----------------------------|
-------------6-5-0-5-3-0-3-2-|
--3---3--3-------------------|

Verso 1x; Verso2 1x

Refrão
---------------------------|---------------------------|---------------------------|
-------------------4-4-----|-------------------7-7-----|---------------------------|
---------------4-4-----4-4-|---------------7-7-----7-7-|---------------------------|
--2---2---2----------------|--5---5---5----------------|--0---0---0----------------|
---------------------------|---------------------------|---------------------------|

------------------------|---------------------------|
------------------------|-------------------4-4-----|
------------------------|---------------4-4-----4-4-|
------------------------|--2---2---2----------------|
--3---3--3---5---5--5---|---------------------------|

---------------------------|---------------------------|
-------------------7-7-----|-------------------2-2-----|
---------------7-7-----7-7-|---------------2-2-----2-2-|
--5---5---5----------------|--0---0---0----------------|
---------------------------|---------------------------|

-----------------------------|
-----------------------------|
-----------------------------|
-------------6-5-0-5-3-0-3-2-|
--3---3--3-------------------|

Solo
------------------------------|------------------------------|
------------------------------|------------------------------|
------------------------------|------------------------------|
------------------------------|------------------------------|
--3-3--3--3-3-3--3--3-3-3-3-3-|--3-3--3--3-3-3--3--3-3-3-3-3-|

------------------------------|-------------------------------|
------------------------------|-------------------------------|
------------------------------|-------------------------------|
------------------------------|-----------------6-5-0-5-3-0-2-|
--3-3--3--3-3-3--3--3-3-3-3-3-|--3-3--3--3-3-3----------------| 2x


------------------------------|-----------------------------|
------------------------------|-----------------------------|
------------------------------|-----------------------------|
------------------------------|--------------------------7--|
--5-5--5--5-5-5--5--5-5-5-5-5-|--5-5--5--5-5-5--5--5-5-5----|

------------------------------|--------------------------------|
------------------------------|--------------------------------|
------------------------------|--------------------------------|
------------------------------|-----------------10-0-0-8-0-0-6-|
--5-5--5--5-5-5--5--5-5-5-5-5-|--5-5--5--5-5-5-----------------| 2x

------------------------------|------------------------------|
------------------------------|------------------------------|
------------------------------|------------------------------|
------------------------------|------------------------------|
--3-3--3--3-3-3--3--3-3-3-3-3-|--3-3--3--3-3-3--3--3-3-3-3-3-|

------------------------------|-------------------------------|
------------------------------|-------------------------------|
------------------------------|-------------------------------|
------------------------------|-----------------6-5-0-5-3-0-2-|
--3-3--3--3-3-3--3--3-3-3-3-3-|--3-3--3--3-3-3----------------|

--------------------------------------------------|
--------------------------------------------------|
--------------------------------------------------|
--6-0-0-5-0-0-3-0-2-0-8-0-0-6-0-0-5-0-0-3-0-0-10--|
--------------------------------------------------|

Refrão Final
|-----||-----||-----|-------------------------|---------------------------|
|-----||-----||-----|-------------------------|-------------------4-4-----|
|-----||-----||-----|-------------------------|---------------4-4-----4-4-|
|-----||-----||-----|----------------0---0--0-|--2---2---2----------------|
|-----||-----||-----|--3---3--3---------------|---------------------------|

---------------------------|---------------------------|
-------------------7-7-----|---------------------------|
---------------7-7-----7-7-|---------------------------|
--5---5---5----------------|--0---0---0----------------|
---------------------------|---------------------------|

------------------------|---------------------------|
------------------------|-------------------4-4-----|
------------------------|---------------4-4-----4-4-|
------------------------|--2---2---2----------------|
--3---3--3---5---5--5---|---------------------------|

---------------------------|---------------------------|
-------------------7-7-----|-------------------2-2-----|
---------------7-7-----7-7-|---------------2-2-----2-2-|
--5---5---5----------------|--0---0---0----------------|
---------------------------|---------------------------|

-----------------------------|---------------------------|
-----------------------------|-------------------4-4-----|
-----------------------------|---------------4-4-----4-4-|
-------------6-5-0-5-3-0-3-2-|--2---2---2----------------|
--3---3--3-------------------|---------------------------|

---------------------------|---------------------------|
-------------------7-7-----|-------------------2-2-----|
---------------7-7-----7-7-|---------------2-2-----2-2-|
--5---5---5----------------|--0---0---0----------------|
---------------------------|---------------------------|

---------------------------|---------------------------|
---------------------------|-------------------4-4-----|
---------------------------|---------------4-4-----4-4-|
---------------------------|--2---2---2----------------|
--3---3--3---5---5--5------|---------------------------|

---------------------------|---------------------------|
-------------------7-7-----|-------------------2-2-----|
---------------7-7-----7-7-|---------------2-2-----2-2-|
--5---5---5----------------|--0---0---0----------------|
---------------------------|---------------------------|

-------------------------------|-------------------------------|
-------------------------------|-------------------------------|
-------------------------------|-------------------------------|
---------------6-5-0-5-3-0-3-2-|--0-3-2-0-2-3-0-6---0-0--0--0--|
--3-3--3--3-3------------------|-------------------------------|

-------------------------------|
-------------------------------|
-------------------------------|
--0-3-2-0-2-3-0-8---0-0--0--0--|
-------------------------------|
Composición de Edu Falaschi / Felipe Andreoli
Colaboración y revisión:
  • Leandro santos
29 vistas

0 comentarios

Ver todos los comentarios

¿Lograste tocar?

0 Tocaron 0 Aún no

¡Graba un video tocando Fragile Equality y envíanoslo!

00:00 / 00:00
Outros vídeos desta música
Repetir Calidad Automático
Outros vídeos desta música
00:00 / 00:00
Automático
OK