Cifra Club

Peão

Almir Sater

Cifrado: Completa (guitarra y guitarra eléctrica)
tono: Ab (con acordes en la forma de E) Capotraste en 4ª casa
Intro:
E|------------------------------------5/6-6----------------|
B|--0-----0-0-5-5/7-----0-0-5-5/7-----6/7-7-7-0-5p0-----0--|
G|--0-----0-0-6-6/8-----0-0-6-6/8-----------0-0-0---6---0--|
D|--0---0-0-0---------0-0-0---------0-------0-0-6p0---8-0--|
A|--6---------------------------------6/7-------7-------6--|
E|--7-7-------------7-------------7---------7-----------7--|


F#
Diga você me conhece
              E
Eu já fui boiadeiro

Conheço estas trilhas
                B
Quilômetros, milhas
(RIFF 1)
Que vem e que vão

Pelo alto sertão

Que agora se chama

Não mais de sertão
                E          B
Mas de terra vendida
    E    B
Civilização

F#
Ventos que arrombam janelas
                    E
E arrancam porteiras
                            B
Espora de prata riscando as fronteiras
(RIFF 1)
Selei meu cavalo

Matula no fardo

Andando ligeiro

Um abraço apertado
         E             B
Um suspiro dobrado
          E             B
Não tem mais sertão

E
Os caminhos mudam com o tempo
F#
Só o tempo muda um coração
   E
Segue seu destino boiadeiro
                       B        (RIFF 2)
Que a boiada foi no caminhão
E
A fogueira, a noite
  F#
Redes no galpão
 E                      (RIFF 3)
O paiero, a moda,

O mate a proza

A saga a sina

O causo e onça
                B
Tem mais não

F#    B
Oh peão....
E|------------------------------------5/6-6----------------|
B|--0-----0-0-5-5/7-----0-0-5-5/7-----6/7-7-7-0-5p0-----0--|
G|--0-----0-0-6-6/8-----0-0-6-6/8-----------0-0-0---6---0--|
D|--0---0-0-0---------0-0-0---------0-------0-0-6p0---8-0--|
A|--6---------------------------------6/7-------7-------6--|
E|--7-7-------------7-------------7---------7-----------7--|


F#
Tempos e vidas cumpridas
               E
Pó poeira estrada

Estórias contidas
          B
Nas encruzilhadas
                (RIFF 1)
Em noites perdidas

No meio do mundo

Mundão cabeludo

Onde tudo é floresta
           E               B
E campinas silvestres
     E               B
Mundão caba não

  F#
Sabe que prum bom viajante
            E
Nada é distante

Prum bom companheiro
                B
Não conta dinheiro
(RIFF 1)
Existe uma vida

Uma vida vivida

Sentida e sofrida

De vez por inteiro
                 E             B
E este é o preço de eu ser brasileiro

repete...

E
Os caminhos mudam com o tempo...
RIFF 1

SELEI MEU CAVALO...
E|--------------------------------------------------------------------5/6-6----------------|
B|--0-----0-0-5-5/7-----0-0-5-5/7---------0-0-5-5/7-----0-0-5-5/7-----6/7-7-7-0-5p0-----0--|
G|--0-----0-0-6-6/8-----0-0-6-6/8---------0-0-6-6/8-----0-0-6-6/8-----------0-0-0---6---0--|
D|--0---0-0-0---------0-0-0---------0-0-0-------------0-0-0---------0-------0-0-6p0---8-0--|
A|--6-----------------------------------------------------------------6/7-------7-------6--|
E|--7-7-------------7-------------7-----------------7-------------7---------7-----------7--|

RIFF 2

QUE A BOIADA FOI PRO CAMINHÃO...
                e|----------------------|
                B|--5---5---5-0-0-5--0--|
                G|--0---0---0-0-0-0--0--|
                D|--6---6---6-0-0-6--0--|
                A|--7-7-7-7-7-7-7-7-----|
                E|------------------7---|

RIFF 3

 O PAIEIRO, A MODA...                                                                        (...)OOOOOH,  PEÃO
E|--0-0---------------------0-0---------------------0-0-----0-----0-------------------------------6---6-----|
B|--5-5---7-7---5-5---7-7---5-5---7-7---5-5---7-7---5-5-----5-----5-5-0-0h5-0---0---0-0h5p0---0---7---7---5-|
G|--0-0---0-0---0-0---0-0---0-0---0-0---0-0---0-0---0-0---0-----0---0-0-0---0---0---0-------6-----6---6---0-|
D|------------------------------------------------------------------6-0-0h6-0---0---0-----------0-0-0-0-0-6-|
A|--7---7-----7-----7-----7-----7-----7-----7-----7-----7-----7-----7-7-----------------------------------7-|
E|--------------------------------------------------------------------------7-7-7-7-7-----------------------|

00:00 / 00:00
Otros videos de esta canción
Repetir
Otros videos de esta canción
Composición de Almir Sater / Renato Teixeira
Colaboración y revisión:
  • Wilson Junior
74 vistas
    • ½ Tono
    • A
    • Bb
    • B
    • C
    • Db
    • D
    • Eb
    • E
    • F
    • F#
    • G
    • Ab
  • Agregar a la lista

    0 comentarios

    Ver todos los comentarios

    ¿Lograste tocar?

    2 Tocaron 0 Aún no

    ¡Graba un video tocando Peão y envíanoslo!

    00:00 / 00:00
    OK