Cifra Club

Aprenda

Me & You (feat. Iro)

Alok

Tablatura: Principal (guitarra)
tono: F
[Intro] Bb  Gm  Dm  C
        Bb  Gm  Dm  C
        Bb  Gm  Dm  C

    Bb                          Gm
E|-------------------------------------------------------|
B|--------6------------6-------------3------------3------|
G|----------7------------7-------------3------------3----|
D|-----8------8-----8------8------3------3-----3------3--|
A|-------------------------------------------------------|
E|--6-------------6-------------3------------3-----------|

    Dm                            C
E|-------------------------------------------------------|
B|--------6------------6--------------5------------5-----|
G|----------7------------7--------------5------------5---|
D|----7-------7------7-----7--------5-----5------5-----5-|
A|--5-------------5--------------3------------3----------|
E|-------------------------------------------------------|

[Solo intro]

E|-----8--------------8-----------8-----------------------|
B|--5-----8--6/5---5----6/5----5-----6/5--5-5h6p5/3--5~---|
G|--------------------------------------------------------|
D|--------------------------------------------------------|
A|--------------------------------------------------------|
E|--------------------------------------------------------|

E|-----8--------------8-----------8-----------------------|
B|--5-----8--6/5---5----6/5----5-----6/5--5-5h6p5/3--5~---|
G|--------------------------------------------------------|
D|--------------------------------------------------------|
A|--------------------------------------------------------|
E|--------------------------------------------------------|

Bb              Gm                 Dm
  Where have all the pictures gone
                                C
This place was home before you left
Bb             Gm             Dm
  All my hopes, all my dreams
              C
Tried to move on
But I just couldn't feel my feet
Bb           Gm            Dm
  Let her fly, into the sky
                C
The tears remain under my eyes
Bb         Gm                     Dm
  Haven't seen her since that day
                      C
If I could reach her now
This is what I would say

Bb
 Wherever we go to
Gm
  Whatever we do
Dm            C
  It' only me, It's only you
Bb
  Wherever we go to
Gm
  Whatever we do
Dm             C
  It's only me, It's only you

( Bb  Gm  Dm  C )
( Bb  Gm  Dm  C )
( Bb  Gm  Dm  C )
( Bb  Gm  Dm  C )

But I just couldn't feel my feet
Bb           Gm
  Let her fly, into the sky
Dm                 C
  The tears remain under my eyes
Bb            Gm
  Haven't seen her since that day
Dm                         C
  If I could reach her now
This is what I would say

( Bb  Gm  Dm  C )
( Bb  Gm  Dm  C )
( Bb  Gm  Dm  C )
( Bb  Gm  Dm  C )

E|-----8--------------8-----------8-----------------------|
B|--5-----8--6/5---5----6/5----5-----6/5--5-5h6p5/3--5~---|
G|--------------------------------------------------------|
D|--------------------------------------------------------|
A|--------------------------------------------------------|
E|--------------------------------------------------------|

E|-----8--------------8-----------8-----------------------|
B|--5-----8--6/5---5----6/5----5-----6/5--5-5h6p5/3--5~---|
G|--------------------------------------------------------|
D|--------------------------------------------------------|
A|--------------------------------------------------------|
E|--------------------------------------------------------|

Bb            Gm
  I would play this from the start
Dm                             C
  Wrote our names out on the tree
Bb          Gm
  Holding on, forever's arms
Dm                 C
  Oh that innocence
It melts my heart
Bb             Gm
  Hand in hand, through fields of gold
Dm
  I'd do the same
C
  Even when we get old
Bb            Gm
  Haven't seen her since that day
Dm
  If I could reach her now
C
 This is what I would say

Bb
 Wherever we go to
Gm
  Whatever we do
Dm            C
  It' only me, It's only you
Bb
  Wherever we go to
Gm
  Whatever we do
Dm             C
  It's only me, It's only you

( Bb  Gm  Dm  C ) (10x)

Bb
 Wherever we go to
Gm
  Whatever we do
Dm            C
  It' only me, It's only you
Bb
  Wherever we go to
Gm
  Whatever we do
Dm             C
  It's only me, It's only you

( Bb  Gm  Dm  C )
Colaboración y revision:
  • Thiago Almeida
  • Luan Ribeiro
306 reproducciones
    • ½ Tono
    • A
    • Bb
    • B
    • C
    • Db
    • D
    • Eb
    • E
    • F
    • F#
    • G
    • Ab
  • Adicionar à lista

    0 comentarios

    Ver todos os comentários

    ¿Conseguiste tocar?

    5 Tocaram 1 Ainda não

    Grave um vídeo tocando Me & You (feat. Iro) e nos envie!

    00:00 / 00:00
    outros vídeos desta música
    repetir qualidade Automático
    Outros vídeos desta música
    00:00 / 00:00
    Automático
    OK