Cifra Club

Big in Japan

Alphaville

Cifrado: Principal (guitarra y guitarra eléctrica)
tono: F
(intro) (ouça a música para pegar o ritmo das frases):

(1° seqüência)
|---------------p.m.--------------|
E|--------------------------------
B|6--------6*------6--------8*-6*-
G|--7-5-5-7----------7-5-5-7------
D|--------------------------------
A|--------------------------------
E|--------------------------------

(2° seqüência)
|-------------------p.m.--------------------|
E|------------------------------------------
B|6--------6-----------6---------8*-8*-6*-6*
G|--7-5-5-7-7-5*-5-7~----7-5-5-7------------
D|------------------------------------------
A|------------------------------------------
E|------------------------------------------

(3° seqüência)
|---------p.m.--------|
E|---------------------5---*-5~-----8----*-8~----
B|6--------6-----------8b10*-8b10~--11b13*-11b13~
G|--7-5-5-7-7-5*-5-7~----------------------------
D|-----------------------------------------------
A|-----------------------------------------------
E|-----------------------------------------------

(ordem de execução: 1° seqüência / 2° seqüência / 3° seqüência/ 2° seqüência / 3° seqüência)

p.m. palm mutting
~ vibrato
* staccato
b bend

Dm
Winter's cityside
Bb                         C                             A
Crystal bits of snowflakes all around my head and in the wind
Dm
I had no illusions
Bb                   C                               A
That I'd ever find a glimps of summer's heatwaves in your eyes

Dm      Bb              C            A         Bb
You did what you did to me, now it's history I see
          Gm              A
Here's my comeback on the road again
Dm          Bb                C
Things will happen while they can
       A                Bb                Gm             A
I will wait here for my man tonight, it's easy when your big in japan

                   Dm     Bb
When your big in japan, tonight
         C       A               Bb            Gm               A
Big in japan, be tight, big in japan where the eastern sea's so blue
       Dm       Bb               C                  A
Big in japan, alright, pay, then I'll sleep by your side
           Bb               Gm       A                         Dm
Things are easy when you're big in japan, when you're big in japan

(interlúdio 2x) Dm Bb C A Bb Gm A

Dm
Neon on my naked skin
Bb                         C               A
Passing silhouettes of strange illuminated mannequins
Dm
Shall I stay here at the zoo
Bb                       C                    A
Or shall I go and change my point of view for other ugly scenes

Dm      Bb              C            A         Bb
You did what you did to me, now it's history I see
          Gm              A
Here's my comeback on the road again
Dm          Bb                C
Things will happen while they can
       A                Bb                Gm             A
I will wait here for my man tonight, it's easy when your big in japan

                   Dm     Bb
When your big in japan, tonight
         C       A               Bb            Gm               A
Big in japan, be tight, big in japan where the eastern sea's so blue
       Dm       Bb               C                  A
Big in japan, alright, pay, then I'll sleep by your side
           Bb               Gm       A                         Dm
Things are easy when you're big in japan, when you're big in japan
Composición de Bernhard Lloyd / Frank Mertens / Marian Gold
Colaboración y revisión:
  • André Maciel
2.740 vistas
    • ½ Tono
    • A
    • Bb
    • B
    • C
    • Db
    • D
    • Eb
    • E
    • F
    • F#
    • G
    • Ab
  • Agregar a la lista

    0 comentarios

    Ver todos los comentarios

    ¿Lograste tocar?

    12 Tocaron 0 Aún no

    ¡Graba un video tocando Big in Japan y envíanoslo!

    00:00 / 00:00
    Outros vídeos desta música
    Repetir Calidad Automático
    Outros vídeos desta música
    00:00 / 00:00
    Automático
    OK