Cifra Club

Laço Aberto

Althair e Alexandre

Cifrado: Principal (guitarra y guitarra eléctrica)
Selo Cifra Club: esta cifra foi revisada para atender aos critérios oficiais da nossa Equipe de Qualidade.
tono: F
[Intro] Bb  F  C  F  F7

E|----------------------------------------------|
B|----------------------------------------------|
G|----------------------------------------------|
D|---------------------------------------3------|
A|-----------------3-1---1--3--3/5--3--1--------|
E|-1--3--3/5--3-1-------------------------------|

E|-------------------------------------------1--|
B|-----------3-5-3-------3-5-3------3--------1--|
G|-----2-3-5-------5-3-5-------5-3----5-2----2--|
D|-3-5---------------------------------------1--|
A|-------------------------------------------3--|
E|-------------------------------------------1--|

[Primeira Parte]

               Bb9
Te amar foi um erro
                 F
Foi um erro te amar
                   C
Mas eu erro outra vez
           F     F7
Se acaso precisar

                     Bb9
Por você não me arrependo
                        F
Das loucuras que eu já fiz
                   C
Por você estou sofrendo
                      F  F7
Mas te amar me faz feliz

[Refrão]

                   Bb
O amor é um laço aberto
Muito perto, tiro certo
                   F
Esperando alguém cair
Iludir, se ferir
                  C
Seu amor é desse jeito manhoso
                    F   F7
Safado e gostoso demais
                    Bb9
O amor é um prato quente
Atraente, envolvente
                   F
Faz a gente se servir
Engolir, repetir
                     C
Seu amor é um jeito bom de viver
                           F
Eu não vou te esquecer nunca mais

[Solo] Bb  F  C  F  F7

E|----------------------------------------------|
B|----------------------------------------------|
G|----------------------------------------------|
D|---------------------------------------3------|
A|-----------------3-1---1--3--3/5--3--1--------|
E|-1--3--3/5--3-1-------------------------------|

E|-------------------------------------------1--|
B|-----------3-5-3-------3-5-3------3--------1--|
G|-----2-3-5-------5-3-5-------5-3----5-2----2--|
D|-3-5---------------------------------------1--|
A|-------------------------------------------3--|
E|-------------------------------------------1--|

[Primeira Parte]

               Bb9
Te amar foi um erro
                 F
Foi um erro te amar
                   C
Mas eu erro outra vez
           F     F7
Se acaso precisar

                     Bb9
Por você não me arrependo
                        F
Das loucuras que eu já fiz
                   C
Por você estou sofrendo
                      F  F7
Mas te amar me faz feliz

[Refrão]

                   Bb
O amor é um laço aberto
Muito perto, tiro certo
                   F
Esperando alguém cair
Iludir, se ferir
                  C
Seu amor é desse jeito manhoso
                    F   F7
Safado e gostoso demais
                    Bb9
O amor é um prato quente
Atraente, envolvente
                   F
Faz a gente se servir
Engolir, repetir
                     C
Seu amor é um jeito bom de viver
                           F
Eu não vou te esquecer nunca mais

[Solo] Bb  F  C  F  F7

[Refrão]

                   Bb
O amor é um laço aberto
Muito perto, tiro certo
                   F
Esperando alguém cair
Iludir, se ferir
                  C
Seu amor é desse jeito manhoso
                    F   F7
Safado e gostoso demais
                    Bb9
O amor é um prato quente
Atraente, envolvente
                   F
Faz a gente se servir
Engolir, repetir
                     C
Seu amor é um jeito bom de viver
                           F
Eu não vou te esquecer nunca mais

                     C
Seu amor é um jeito bom de viver
                           F
Eu não vou te esquecer nunca mais
                     C
Seu amor é um jeito bom de viver
                           F
Eu não vou te esquecer nunca mais
Otros videos de esta canción
    1.353 exhibiciones
      • ½ Tono
      • A
      • Bb
      • B
      • C
      • Db
      • D
      • Eb
      • E
      • F
      • F#
      • G
      • Ab
    • Agregar a la lista

    Afinação da cifra

    Afinador online

      Ops (: Contenido disponible solo en portugués.
      OK