Cifra Club

Te Amar Foi Um Erro

Althair e Alexandre

Cifrado: Principal (guitarra y guitarra eléctrica)
tono: F
                  Bb                 F
E|--------------------------------------------------
B|--------------------------------------------------
G|--------------------------------------------------
D|---------------------------------3~---------------
A|-------------3-1~----1-3-3/5-3-1------------------
E|-1-3-3/5-3-1--------------------------------------
                 C                            F
E|-------------------------------------------------------
B|-----------3-5-3---------3-5--3------------------------
G|-----2-3-5-------5-3---5---------5-3--5p3--------------
D|-3-5--------------------------------------3~-------3~--
A|------------------------------------------------3h5----
E|-------------------------------------------------------

                 Bb
Te amar foi um erro
                 F
Foi um erro te amar
                   C
Mas eu erro outra vez
               F
Se acaso precisar
F7                   Bb
Por você eu me arrependo    Por você não me arrependo
                        F
Das loucuras que eu já fiz
                  C
Por você vivo sofrendo      Por você estou sofrendo
                     F
Mas te amar me faz feliz
F7                  Bb
O amor é um laço aberto
Muito perto, Tiro certo
                   F
Esperando alguém cair
Iludir, Se ferir
                    C
Seu amor é desse jeito manhoso
                     F
Safado e gostoso demais
F7                  Bb
O amor é um prato quente
Atraente, Envolvente
                   F
Faz a gente se servir
Engolir, Repetir
                     C
Seu amor é um jeito bom de viver
                               F
Eu não vou te esquecer nunca mais
00:00 / 00:00
Otros videos de esta canción
Repetir
Otros videos de esta canción
Compositor no encontrado.
Colaboración y revisión:
1.981 vistas
    • ½ Tono
    • A
    • Bb
    • B
    • C
    • Db
    • D
    • Eb
    • E
    • F
    • F#
    • G
    • Ab
  • Agregar a la lista

    0 comentarios

    Ver todos los comentarios
    00:00 / 00:00
    OK