Cifra Club

Amantes

Amado Batista

Tablatura: Principal (guitarra)
tono: D
Intro:

  D                         A7                      G            A7               D
E|-10--14-12-10--14-12-10-12-9---12-10-9--12-10-9-10-7---10-9-7----------3-0------2----|
B|--------------------------------------------------------------8-10---------3-2--3----|
G|---------------------------------------------------------------------2----------2----|
D|--------------------------------------------------------------------------------0----|
A|-------------------------------------------------------------------------------------|
E|-------------------------------------------------------------------------------------|

 D         A7
 Já amanheceu
                          Bm
 E o tempo foi pouco pra gente
     G                  D
 Banhados molhados de amor
                 A7
 em nosso suor quente

Passagem:

E|---3-0------2---|
B|-------3-2--3---|
G|-2----------2---|
D|------------0---|
A|----------------|
B|----------------|

 D               A7
  Uma noite não deu
                        Bm
 Pra matar o desejo em nós
         G                D
 Nossos Beijos sufocam a nossa voz
            A7       D  D7
 Amantes ardentes a sós
  G                             D
 Sei mais que antes eu vou te amar
                                 A7
 Muito mais vou querer te encontrar

                          D  D7
 Repetir tudo que a gente fez
        G
 Esse amor
                           D
 Nos espera em qualquer lugar
                             A7
 Basta apenas um toque no olhar
                              D
 Pra que tudo aconteça outra vez

  D                         A7                      G            A7               D    D7
E|-10--14-12-10--14-12-10-12-9---12-10-9--12-10-9-10-7---10-9-7----------3-0------2----|
B|--------------------------------------------------------------8-10---------3-2--3----|
G|---------------------------------------------------------------------2----------2----|
D|--------------------------------------------------------------------------------0----|
A|-------------------------------------------------------------------------------------|
E|-------------------------------------------------------------------------------------|

  G                             D
 Sei mais que antes eu vou te amar...
Composição de José Fernandes
Colaboración y revision:
  • Felipe Omar
  • Adao Candido
  • Israel Santos
590 reproducciones
    • ½ Tono
    • A
    • Bb
    • B
    • C
    • Db
    • D
    • Eb
    • E
    • F
    • F#
    • G
    • Ab
  • Adicionar à lista

    0 comentarios

    Ver todos os comentários
    00:00 / 00:00
    outros vídeos desta música
    repetir qualidade Automático
    Outros vídeos desta música
    00:00 / 00:00
    Automático
    OK