Cifra Club

Meu Ex-Amor

Amado Batista

Cifrado: Principal (guitarra y guitarra eléctrica)
Já pensou em usar uma coleção de roupas do Cifra Club? Responda as perguntas abaixo e nos ajude nessa missão! →
tono: E
[Intro] B  E  B  A  E  B

E|------------------------------------------|
B|------------------------------------------|
G|------------------------------------------|
D|------------------------------------------|
A|-2-2h4-2--------2-2h4-2---2---------------|
E|---------0-0h4----------4---4-2-----------|

E|------------------------------------------|
B|------------------------------------------|
G|------------------------------------------|
D|---2-1----------------------1-2-----------|
A|-2-----2-2h4-2-0--2-2h4-2-4---------------|
E|---------------------------------4-5-5h7--|

[Primeira Parte]

             E
Eu tive um amor
            B
Amor tão bonito
              A   
Daqueles que matam
                 E
Com sabor de saudade
 
Meu ex-amor
                               B
Tem coisas que a gente não esquece
                A  
Mas você não merece
       E  E7
Tanta dor

[Refrão]

              A
Foi bonito demais
                E
Mas eu estou sozinho
              A
Fui rico de amor
                E
Hoje estou tão só

[Solo] B  E  B  A  E  B

E|------------------------------------------|
B|------------------------------------------|
G|------------------------------------------|
D|------------------------------------------|
A|-2-2h4-2--------2-2h4-2---2---------------|
E|---------0-0h4----------4---4-2-----------|

E|------------------------------------------|
B|------------------------------------------|
G|------------------------------------------|
D|---2-1----------------------1-2-----------|
A|-2-----2-2h4-2-0--2-2h4-2-4---------------|
E|---------------------------------4-5-5h7--|

[Primeira Parte]

             E
Eu tive um amor
            B
Amor tão bonito
              A   
Daqueles que matam
                 E
Com sabor de saudade
 
Meu ex-amor
                               B
Tem coisas que a gente não esquece
                A  
Mas você não merece
       E  E7
Tanta dor

[Refrão]

              A
Foi bonito demais
                E
Mas eu estou sozinho
              A
Fui rico de amor
                E
Hoje estou tão só

[Final] E

E|------------------------------------------|
B|------------------------------------------|
G|------------------------------------------|
D|------------------------------------------|
A|-2--2h4--2--------------------------------|
E|--------------2b3r2---0-------------------|
Composición de Amado Batista / Reginaldo Sodré
12.110 vistas
    • ½ Tono
    • A
    • Bb
    • B
    • C
    • Db
    • D
    • Eb
    • E
    • F
    • F#
    • G
    • Ab
  • Agregar a la lista

    0 comentarios

    Ver todos los comentarios
    00:00 / 00:00
    Outros vídeos desta música
    Repetir Calidad Automático
    Outros vídeos desta música
    00:00 / 00:00
    Automático
    OK